Enviar cifraEntrar

Someone Like You

Adele

Cifra: Simplificada
exibições 259.667
Tom: A# (com acordes na forma de G) Capotraste na 3ª casa
Intro / Versos:

       G
E|-------0--------0--------0--------0------
B|-----2---2----2---2----2---2----2---2----
G|---2--------2------- 2--------2----------
D|-----------------------------------------
A|-----------------------------------------
E|-----------------------------------------


       G/F#
E|-------0--------0--------0--------0------
B|-----0---0----0---0----0---0----0---0----
G|---1--------1--------1--------1----------
D|-----------------------------------------
A|-----------------------------------------
E|-----------------------------------------


       Em
E|-------2--------2--------2--------2------
B|-----2---2----2---2----2---2----2---2----
G|---2--------2--------2--------2----------
D|-----------------------------------------
A|-----------------------------------------
E|-----------------------------------------


       C7+
E|-------2--------2--------2--------2------
B|-----3---3----3---3----3---3----3---3----
G|---2--------2--------2--------2----------
D|-----------------------------------------
A|-----------------------------------------
E|-----------------------------------------


Pré-Refrão:

       D9/F#            Em7
E|-------0--------0--------0--------0------
B|-----2---2----2---2----0---0----0---0----
G|---2--------2--------1--------1----------
D|-----------------------------------------
A|-----------------------------------------
E|-----------------------------------------


       C                C
E|-------2--------2--------2--------2------
B|-----2---2----2---2----3---3----3---3----
G|---2--------2--------2--------2----------
D|-----------------------------------------
A|-----------------------------------------
E|-----------------------------------------


       D9/F#            Em
E|-------0--------0--------0--------0------
B|-----2---2----2---2----0---0----0---0----
G|---2--------2--------1--------1----------
D|-----------------------------------------
A|-----------------------------------------
E|-----------------------------------------


       C               C7+
E|-------2--------2--------2--------2------
B|-----2---2----2---2----3---3----3---3----
G|---2--------2--------2--------2----------
D|-----------------------------------------
A|-----------------------------------------
E|-----------------------------------------


       C
E|-------2----------------------------------
B|-----3------------------------------------
G|---2--------------------------------------
D|-----------------------------------------
A|-----------------------------------------
E|-----------------------------------------


Refrão:

       G                D
E|-------0--------0--------0--------0------
B|-----2---2----2---2----0---0----0---0----
G|---2--------2--------1--------1----------
D|-----------------------------------------
A|-----------------------------------------
E|-----------------------------------------


       Em             C
E|-------2--------2--------2--------2------
B|-----2---2----2---2----3---3----3---3----
G|---2--------2--------2--------2----------
D|-----------------------------------------
A|-----------------------------------------
E|-----------------------------------------



Verso 1:
G                G/F#
I heard that you´re settled down
        Em
That you found a girl
          C
And you´re married now

  G              G/F#
I heard that your dreams came true
         Em
Guess she gave you things
        C
I didn´t give to you

   G                   G/F#
Old friend why are you so shy
        Em
It ain´t like you to hold back
  C
Or hide from the light

Pré-Refrão:
  D9/F#                      Em                 C
I hate to turn up out of the blue uninvited but

I couldn´t stay away I couldn´t fight it
    D9/F#
I´d hoped you´d see my face
    Em                             C           C7+    C
And that you´d be reminded that for me it isn´t over

Refrão:
G            D                  Em  C
 Never mind I'll find someone like you
       G               D        Em  C
I wish nothing but the best for you too
      G           D        Em         C
Don´t forget me I beg I remember you said
             G                 D                     Em     C
Sometimes it lasts in love but sometimes it hurts instead
             G                 D                     Em    C
Sometimes it lasts in love but sometimes it hurts instead, yeah

Verso 2:
G              G/F#
 You´d know how time flies
    Em
Only yesterday
       C
was the time of our lives

       G
We were born and raised
    G/F#
In a summer haze
     Em                     C
Bound by the surprise of our glory days

Pré-Refrão:
  D9/F#                      Em                 C
I hate to turn up out of the blue uninvited but

I couldn´t stay away I couldn´t fight it
    D9/F#
I´d hoped you´d see my face
    Em                             C           C7+    C
And that you´d be reminded that for me it isn´t over

Refrão:
G            D                  Em  C
Every night I find someone like you
       G               D        Em  C
I wish nothing but the best for you too
      G           D        Em         C
Don´t forget me I beg I re-member you said
             G                 D                     Em     C
Sometimes it lasts in love but sometimes it hurts in-stead, yeah

Ponte:
D9/F#
Nothing compares no worries or cares
Em7
Regrets and mistakes their memories make
C7+
Who would have known how
       Am    G/B        C
Bitter-sweet this would taste

Refrão:
G              D                  Em  C
Never mind I'll find someone like you
       G               D        Em  C
I wish nothing but the best for you too
      G           D        Em         C
Don´t forget me I beg I re-member you said
             G                 D                     Em     C
Sometimes it lasts in love but sometimes it hurts in-stead

G              D                  Em  C
Never mind I'll find someone like you
       G               D        Em  C
I wish nothing but the best for you too
      G           D        Em         C
Don´t forget me I beg I re-member you said
             G                 D                     Em     C
Sometimes it lasts in love but sometimes it hurts in-stead
             G                 D                     Em     C
Sometimes it lasts in love but sometimes it hurts in-stead
             G                 D                     Em     C
Sometimes it lasts in love but sometimes it hurts instead

Yeah Yeah
  • 1
  • 2
  • 3
  • 4
  • 5
  • 6
  • 7
  • 8
  • 9
  • 10
  • 11
  • 12
    Acordes para:
      Composição: Adele Adkins / Dan WilsonColaboração e revisão:

      0 comentários

        mostrar mais comentários

        Conseguiu tocar?

        47tocaram2ainda não

        Grave um vídeo tocando Someone Like You e mande pra gente!

        00:00 / 00:00
        outros vídeos desta música
        repetirqualidadeautomática
        • automática
        Outro vídeos desta música
          00:00 / 00:00
          automática
          • automática
          Acordes para:violão e guitarra
          dificuldadeexibiçõescontribuições
          1 versão de Tab de baixoexibiçõescontribuições
          1 versão de Tab de gaitaexibiçõescontribuições
          2 versões de Partiturasformatodownloadscontribuição
          fecharplay/pause subir/descer velocidade
            acordes
            fechar
            OK
            Feedback