Cifra Club

Sombras En La Oscuridad

Angeles Del Infierno

Cifra: Principal (violão e guitarra)
tom: Em
Intro.
E|---------------------------------------------------------------|
B|--/12--11-10-9-------------------------------------------------|
G|-------------------12-11-9-------------------------------------|
D|-------------------------------12-11-10------------------------|
A|--------------------------------------------12-12-(11)~| -------
E|---------------------------------------------------------------|

Riff A
E|--------------------------------------------------------------------------------------|
B|--------------------------------------------------------------------------------------|
G|--------------------------------------------------------------------------------------|
D|--------------------------------------------------------------------------------------|
A|--14xxxxxxxxx--/-12----10xxxxxxxx----h9--/----7xxxxxxxxx---h9------10xxxxxxxxx--h9---|
E|--12xxxxxxxxx--/-10-----8xxxxxxxxx----h7--/----5xxxxxxxxx---h7------8xxxxxxxxx--h7---|

Riff B
E|---------------------------|--------------------------|------------------------|
B|---------------------------|--------------------------|------------------------|
G|---------------------------|--------------------------|------------------------|
D|---------------------------|--------------------------|------------------------|
A|---(14)~--14-14-----(12)~--|---(10)~--10--10----(9)~--|---(7)~--7-7----(9)~----|
E|---(12)~--12-12-----(10)~--|----(8)~--8---8-----(7)~--|---(5)~--5-5----(7)~----|

E|--------------------------------------|
B|--------------------------------------|
G|--------------------------------------|
D|--------------------------------------|
A|--(10)~---10--10---(9)~---------------|
E|---(8)~---8---8----(7)~---------------|

Riff C
E|---------------------------------------------------|
B|---------------------------------------------------|
G|---------------------------------------------------|
D|---------------------------------------------------|
A|---(14)~-----(10)~-----/-----(12)~---/------(14)~--|
E|---(12)~-----(8)~------/-----(10)~---/------(12)~--|

Riff D
E|--------------------------------------------------------------------------------------|
B|--(11)~--/---(12)~--------------(12)~----------------12-14-15-14-(12)~---------------|
G|----------------------(10)~----------------(11)~--------------------------------------|
D|--------------------------------------------------------------------------------------|
A|--------------------------------------------------------------------------------------|
E|--------------------------------------------------------------------------------------|

Solo guitar 1

Aqui guitar 2 toca Riff A X3 mientras que guitar 1 ase todo esto.
E|---------------------------------------------------------------------------|----|
B|--(11)~--/-----(12)~--------------(12)~---------------12-14-15-14-(12)~----|----|
G|------------------------(10)~----------------(11)~-------------------------|----|
D|---------------------------------------------------------------------------|----|
A|---------------------------------------------------------------------------|----|
E|---------------------------------------------------------------------------|----|
-
E|-----------------------------------------------------|-|
B|--------------(12)~--------------(12)~---------------|-|
G|--11|
D|--------------(10)~-----------------(12)~-----|-|
D|-----------------------------------------------------|-|
A|-----------------------------------------------------|-|
E|-----------------------------------------------------|-|

E|-------------------------------------------| X2
E|-----------------------------------------------------------|
B|---13h15---(15)-15-15--13--13h15p13-----13h15~~------------|
G|-----------------------------------------------------------|
D|-----------------------------------------------------------|
A|-----------------------------------------------------------|
E|-----------------------------------------------------------|

E|-------------------------------|------------------|
B|---(12)~----12h14h16p14p12~----|------------------|
G|-------------------------------|------------------|
D|-------------------------------|------------------|
A|-------------------------------|------------------|
E|-------------------------------|------------------|

Aqui guitar 2 toca riff B, guitar esto:
E|-------------------------------------| X3
E|------------------------------------------------------|--------------|
B|---(17)~---(17)-(17)-(17)----17h18p17p15~-------------|----(16)~-----|
G|----| Hold Bend-----------------------------------------|--------------
D|------------------------------------------------------|--------------|
A|------------------------------------------------------|--------------|
E|------------------------------------------------------|--------------|

Aqui guitar 2 toca riff B, guitar 1 esto:
E|---------------------------------------| X3
E|----------------------------------------------------------|-----------------------------------|
B|--(17)~--------(17)-(17)-(17)---17h18p17p15~--------------|---(15)~--(17)~--(18)~--(19)~------|
3---Hold-Bend----------------------------------------------|-----------------------------------
D|----------------------------------------------------------|-----------------------------------|
A|----------------------------------------------------------|-----------------------------------|
E|----------------------------------------------------------|-----------------------------------|

Aqui guitar 2 toca riff A X3 guitar 1 esto;
                         X5                          X5
E|--------------------------|---------------------------|-------------------|
B|--(12)~--12h14h16p14p12~--|----(11)~--11h12h14p14p11--|-------------------|
G|--------------------------|---------------------------|-------------------|
D|--------------------------|---------------------------|-------------------|
A|--------------------------|---------------------------|-------------------|
E|--------------------------|---------------------------|-------------------|

                        X5                            X2
E|-------------------------|-----------------------------|--------------------|
B|--(10)~--10h12h13p12p10--|-----(11)~--11h12h14p12p11~--|---(12)~~-----------|
G|-------------------------|-------------------0---------|--------------------|
D|-------------------------|-----------------------------|--------------------|
A|-------------------------|-----------------------------|--------------------|
E|-------------------------|-----------------------------|--------------------|

E|-----------------------------------------------|------------------------------|
B|---(19)~----(19)-(19)-(19)-----19p18-----------|---19-19-19-20-19-18~---------|
3---Hold Bend----------------------------(19)~--|------------------------------
D|-----------------------------------------------|------------------------------|
A|-----------------------------------------------|------------------------------|
E|-----------------------------------------------|------------------------------|

                          X5                         X5
E|---------------------------|----------------------------|------------|
B|--(19)----19h21h22p21p19~--|--(17)--17h19h21p19p17~-----|------------|
G|---------------------------|----------------------------|------------|
D|---------------------------|----------------------------|------------|
A|---------------------------|----------------------------|------------|
E|---------------------------|----------------------------|------------|

E|------------------------------------------|----------------------------------------|
B|---(19)~----19-19-19------19p18-----------|--(19)~--19-19-19---19h21p--------------|
G|-----| Hold Bend---------------------(19)~--|-----------------------------------20~--|
D|------------------------------------------|----------------------------------------|
A|------------------------------------------|----------------------------------------|
E|------------------------------------------|----------------------------------------|

                                X5                             X5
E|---------------------------------|--------------------------------|------------|
B|---------------------------------|--------------------------------|------------|
G|--(19)----19h21h22p21p19~--------|------(17)----17h19h21p19p17----|------------|
D|---------------------------------|--------------------------------|------------|
A|---------------------------------|--------------------------------|------------|
E|---------------------------------|--------------------------------|------------|

E|----------------------------------------------------------------|
B|----------------------------------------------------------------|
G|---21p19p17--19p17p15--17p15p14--15p14p12-------(11)b~--(12)b~--|
D|----------------------------------------------------------------|
A|----------------------------------------------------------------|
E|----------------------------------------------------------------|

E|---------------------------------------------------------------|
B|---------------------------------------------------------------|
G|---(12)-(12)-(12)-(12)---14h15p14p12-----(12)~-------(11)~-----|
D|---------------------------------------------------------------|
A|---------------------------------------------------------------|
E|---------------------------------------------------------------|

E|--------------------------------------|--------------------------------------|
B|--------------------------------------|--------------------------------------|
G|---11h12p11h12p11h12p11h12p11h12p11~--|---(11)~--11h12p11p9~---9/7-----------|
D|--------------------------------------|--------------------------------------|
A|--------------------------------------|--------------------------------------|
E|--------------------------------------|--------------------------------------|

E|-------------------------------------------------|
B|--------------(12)~-----(12)--0-----------------|
G|--7/12------------------(12)--0-----------------|
D|-------------------------------------------------|
A|-------------------------------------------------|
E|-------------------------------------------------|

Aqui guitar 2 toca riff B, guitar 1 esto:
E|-------------------------------------| X3
E|------------------------------------------------------|--------------|
B|---(17)~---(17)-(17)-(17)----17h18p17p15~-------------|---(16)~------|
G|----| Hold Bend-----------------------------------------|--------------
D|------------------------------------------------------|--------------|
A|------------------------------------------------------|--------------|
E|------------------------------------------------------|--------------|

Aqui guitar 2 toca riff B, guitar 1 esto:
E|---------------------------------------| X3
E|-----------------------------------------------|-----------------------------------|
B|--(17)~--------(17)-(17)-(17)---17h18p1--------|---(15)~--(17)~--(18)~--(19)~------|
3---Hold-Bend-----------------------------------|-----------------------------------
D|-----------------------------------------------|-----------------------------------|
A|-----------------------------------------------|-----------------------------------|
E|-----------------------------------------------|-----------------------------------|

Solo Termina............................................

Outro:
E|-------------------------------------|
B|-------------------------------------|
G|-------------------------------------|
D|---9---11---12---14------------------|
A|---7---9----10---12----(14)~---------|
E|--------------------------(12)~------|



Asi es como se sigue la cansion:

Intro. Dos Guitarras.

Riff A X2 Dos Guitarras.

Riff A X2 Dos Guitarras.
El sol le daba paso
a la oscuridad.
Un reino de terror
se instalaba ya.
Un mal de tinieblas negras
cubrian la tierra.
El fin estaba proximo
de la humanidad.

Riff B Guitar one & Riff A Guitar 2
Puedes poser,
senor realidad, lo se.

Riff C X2
Sombras en la oscuridad
Sombras en la oscuridad

Riff D Guitar 1 & Riff A Guitar 2

Riff A X2 Dos Guitarras.
Almas endiabladas
salen sin piedad
es la noche, de satan.
Una extrana fuerza
invade mi interior
todo a cambiado en mi ser.

Riff B Guitar 1& Riff A Guitar 2
Tengo la fuerza
Y tengo el poder, lo se.
Riff B Guitar 1& Riff A Guitar 2
Sombras en la oscuridad
Sombras en la oscuridad
00:00 / 00:00
Outros vídeos desta música
Repetir
Outros vídeos desta música
Composição de robert alvarez
55 exibições
    • ½ Tom
    • Am
    • Bbm
    • Bm
    • Cm
    • C#m
    • Dm
    • Ebm
    • Em
    • Fm
    • F#m
    • Gm
    • G#m
  • Adicionar à lista

    0 comentários

    Ver todos os comentários

    Conseguiu tocar?

    0 Tocaram 0 Ainda não

    Grave um vídeo tocando Sombras En La Oscuridad e nos envie!

    00:00 / 00:00

    Cifra Club Pro

    Aproveite o Cifra Club com benefícios exclusivos e sem anúncios
    Cifra Club Pro
    Aproveite o Cifra Club com benefícios exclusivos e sem anúncios
    OK