Cifra Club

Anjos de Resgate

Anjos de Resgate

Cifra: Principal
exibições 254.648
Tom: D
           D  G         D
Manda teus anjos sobre nós
    Bm              G             A
E abençoa a todos que esperam em Vós
           D  G          D    Bm
Manda Teus anjos pra nos ensinar
      Em        A     D
A Te Louvar e Glorificar
   D                G         A      D
Envia também Teu Espírito de paz e amor
         F#m   Bm    Em         A
O meu coração tem sede do meu criador
   D                 G              A    D
Envia Senhor os teus anjos pra nos resgatar
          F#m        Bm       Em        A
Pra nos proteger de todo mal,para nos guiar
    D
Senhor
         D            G             A      D
Quando acordo olho o céu e canto o meu louvor
    F#m      Bm     Em          A
De todas as manhãs Tu és o meu Senhor
      D         G            A     D
Levantai-Nos ó meu Deus e estende Tuas mãos
   F#m       Bm      Em           A        D
Tu és o meu refúgio nas minhas opressões, Senhor

    G           A      D/F#     G    A
Confio em Vós, Revele Tua face para nós
   G          A     D/F#       G  D/F#  Em  A
Levanta-Te,E põe o Teu escudo sobre nós

[Solo]  D9  G9  A9  G  F#m7  Bm7  Em7  A4/7  D9  B4/7


E|------------------------------------------------------------|
B|-----------15----17----17(b)~~-17^-15-17--------------------|
G|---12/(14)----14----14----------------------14--14~~~~------|
D|------------------------------------------------------------|
A|------------------------------------------------------------|
E|------------------------------------------------------------|

                                                                            

E|-----------17-15-14~~--------------------14-15~~14~~141514------------------19-|
B|---------------------17-15-17-15~~~~15-17-----------------17~~~~15-14-15~~~----|
G|---12/(14)---------------------------------------------------------------------|
D|-------------------------------------------------------------------------------|
A|-------------------------------------------------------------------------------|
E|-------------------------------------------------------------------------------|
Acordes para:
    Colaboração e revisão:

    0 comentários

      mostrar mais comentários

      Conseguiu tocar?

      9tocaram0ainda não

      Grave um vídeo tocando Anjos de Resgate e mande pra gente!

      00:00 / 00:00
      outros vídeos desta música
      repetirqualidadeautomática
      Outro vídeos desta música
        00:00 / 00:00
        automática
        OK