Cifra Club

Coração Chagado

Anjos de Resgate

Cifra: Principal (violão e guitarra)
Selo Cifra Club: esta cifra foi revisada para atender aos critérios oficiais da nossa Equipe de Qualidade.
tom: E
E|---------------------------------------------|
B|----------------10/12-10-----9-9-10-14-12----|
g |11h13-11--9--9-9-9--------------------------|
D|---------------------------------------------|
A|---------------------------------------------|
E|---------------------------------------------|

E|-------------11-12-11h12/14-12-14-14h16------|
B|-----9-10-12---------------------------12-12-|
G|-9h11----------------------------------------|
D|---------------------------------------------|
A|---------------------------------------------|
E|---------------------------------------------|

E|---------------------------------------------|
B|---------------12^---------------------------|
G|-11h13-11----11------------------------------|
D|---------14----------------------------------|
A|---------------------------------------------|
E|---------------------------------------------|

      E         E7M(9)   C#m7/G#              B/C#
Um dia falei com Deus,  senti que ele estava ali
   A          A/B               E      A/B
E tudo eu lhe entreguei    e ele me ouviu
  E          E7M(9)           C#m7/G#      B/C#
Falei do meu coração,   das coisas que eu vivi
     A            A/B              E       B4/7
E em cada momento Deus   sempre estava ali

     G#m7             C#m7
Eu tentei encontrar a tua paz
A    E/G# B9
Deus de amor
       C#m     B         A
Mas foi sua bondade, Senhor
              B4              B
Que trouxe a paz no meu redentor
     G#m7         C#m7         A  E/G# B9
E no teu coração chagado estão minhas mãos
      C#m     B       A       B4             B
Eu te peço, Senhor, liberta e renova meu coração

       E             A
Vou te dar o meu coração
     B               C#m
Entregar-me ao teu perdão
B/D# E         A            B4  B
Abraçar-te, deitar em tuas mãos
       E             A
Vou te dar o meu coração 
     B               C#m
Entregar-me ao teu perdão
   B/D# E        A       A/B     E
Contemplar-te na minha oração
Outros vídeos desta música
104.163 exibições
    • ½ Tom
    • A
    • Bb
    • B
    • C
    • Db
    • D
    • Eb
    • E
    • F
    • F#
    • G
    • Ab
  • Adicionar à lista

Afinação da cifra

Afinador online

    0 comentários

    Ver todos os comentários

    Entre para o Cifra Club PRO

    Tenha acesso a benefícios exclusivos no App e no Site

    • Chega de anúncios

    • Mais recursos no app do Afinador

    • Atendimento Prioritário

    • Aumente seu limite de lista

    • Ajude a produzir mais conteúdo

    Cifra Club Pro

    Aproveite o Cifra Club com benefícios exclusivos e sem anúncios
    Cifra Club Pro
    Aproveite o Cifra Club com benefícios exclusivos e sem anúncios
    OK