Cifra Club

Oceano de Misericórdia

Anjos de Resgate

Cifra: Principal (violão e guitarra)
Selo Cifra Club: esta cifra foi revisada para atender aos critérios oficiais da nossa Equipe de Qualidade.
tom: D
(intro) Bm A G Em D A

E |-----------------------------------------------------
B |-----15----17/19b(20)r19p17-19-19-17-15-15/17-17~~---
G |-/14----14-------------------------------------------
D |-----------------------------------------------------
A |-----------------------------------------------------
E |-----------------------------------------------------

 D          A        Bm                Em               G              A
Todo pecador vive um drama, nem sempre erra porque quer, o pecado o inflama.
       F#m                          B4            B
Pais e filhos não se traem simplesmente por querer.
    Em                G           A4   A
O pecado cega a vítima e faz perecer.
     D                  A                Bm
Não pense que o teu erro por maior que pareça.
    Em               G              A4             A
Diminuirá o amor de Deus por ti a ponto que te esqueça.
  F#m                                B4           B
Deus não pode amar-te mais do que está amando agora.
    Em               G             A4             A
O amor de Deus é graça e quem o experimenta adora.

(estribilho)
    Bm            A       G          D                   A4  A
O pecado nos faz cegos demais, nos afasta da graça e da paz.
        Bm             A          G       D              A4   A       A4           A
E é por isso que Deus quis se tornar um oceano de misericórdia, um insustentável amor.

(refrão)
 D        A        Bm             G      D             Em        Em7
Vem mergulhar no oceano de Deus, vem experimentar Sua graça e perdão.
 A             A7             D                   Em             G               A4
Vem, Deus não quer saber por onde andou, Deus só quer te ver voltando pra descansar em
      A
Suas mãos.
 D        A        Bm             G      D             Em        Em7
Vem mergulhar no oceano de Deus, vem experimentar Sua graça e perdão.
 A             A7             D                  Em               A        D
Vem, Deus não quer saber por onde andou, Deus te quer morando em Seu coração.

(solo) Dm C Bb G A C A
E |--------15^-15^--15^rp13-15-15p13p12-13-15---15/17-18-17-15\13-15--13-
B |----15------------------------------------13---------------------15---
G |-/14--14--------------------------------------------------------------
D |----------------------------------------------------------------------
A |----------------------------------------------------------------------
E |----------------------------------------------------------------------

E |-----------------------------------------
B |-15-18-18br-15-15------------------------
G |------------------12/14-12-14-12-10------
D |------------------------------------12---
A |-----------------------------------------
E |-----------------------------------------

(estribilho)
(refrão)
00:00 / 00:00
Outros vídeos desta música
Repetir
Outros vídeos desta música
66.180 exibições
    • ½ Tom
    • A
    • Bb
    • B
    • C
    • Db
    • D
    • Eb
    • E
    • F
    • F#
    • G
    • Ab
  • Adicionar à lista

Afinação da cifra

Afinador online

    0 comentários

    Ver todos os comentários

    Entre para o Cifra Club PRO

    Tenha acesso a benefícios exclusivos no App e no Site

    • Chega de anúncios

    • Mais recursos no app do Afinador

    • Atendimento Prioritário

    • Aumente seu limite de lista

    • Ajude a produzir mais conteúdo

    00:00 / 00:00

    Cifra Club Pro

    Aproveite o Cifra Club com benefícios exclusivos e sem anúncios
    Cifra Club Pro
    Aproveite o Cifra Club com benefícios exclusivos e sem anúncios
    OK