Cifra Club

Aprenda

D Is For Dangerous

Arctic Monkeys

Tab de baixo: Versão 3
Quer fazer aulas de música com a gente? Responda essas perguntas
e nos ajude nesse projeto! →
Album:  Favorite Worst Nightmare

Intro:
G|---------|
D|10~~~~~~~|
A|---------|
E|---------|


Verse: 0:06
G|---------------------------------------------|
D|-------------------8-10-10-10-8--------------| x4
A|---------10---10----------------10---10------|
E|8-8-8-11----------------------------------11-|


Chorus: 0:19
G|----------------|
D|----------------| x2
A|8-8-8-8-8--6--3-|
E|----------------|

G|----------------|
D|----------------| x2
A|--------9--9--9-|
E|8-8-8-8---------|

G|----------------|
D|----------------| x2
A|8-8-8-8-8--6--3-|
E|----------------|

G|-----------------|
D|-----------------|
A|-----------------|
E|8--8116--664-443~|
(That’s an 11 not 1s)


Verse 0:33                                       Stop on 4th
G|---------------------------------------------|    |--|
D|-------------------8-10-10-10-8--------------| x3 |--|
A|---------10---10----------------10---10------|    |--|
E|8-8-8-11----------------------------------11-|    |8-|


Verse: 0:46
G|---------------------------------------------|
D|-------------------8-10-10-10-8--------------| x8
A|---------10---10----------------10---10------|
E|8-8-8-11----------------------------------11-|


Break: 1:12
G|------------------------------------------|
D|------------------------------------------| x9
A|---------10---10-------------10---10------|
E|8-8-8-11-----------8-6-3-3-8-----------11-|

On the 10th one:
G|---------------------------------8-12-12----|
D|-------------------8-10-10-10-8-------------|
A|---------10---10----------------------------|
E|8-8-8-11---------------------------------11-|

Chorus 1:46 
G|----------------|
D|----------------| x2
A|8-8-8-8-8--6--3-|
E|----------------|

G|----------------|
D|----------------| x2
A|--------9--9--9-|
E|8-8-8-8---------|

G|----------------|
D|----------------| x2
A|8-8-8-8-8--6--3-|
E|----------------|

G|----------------|
D|----------------| x2
A|--------9--9--9-|
E|8-8-8-8---------|

G|----------------|
D|----------------| x2
A|8-8-8-8-8--6--3-|
E|----------------|

G|----------------| |---------------------------------|
D|----------------| |---------------------------------|
A|--------9--9--9-| |--------9--9--9--9--9--9--9--9--9|
E|8-8-8-8---------| |8-8-8-8--------------------------|

G|-----------------|
D|-----------------|
A|-----------------|
E|8--8116--664-443~|
(That’s an 11 not 1s)


EDIT: Everything is 100% correct now.
Composição de Alex Turner / Arctic Monkeys
100 exibições

0 comentários

Ver todos os comentários

Conseguiu tocar?

0 Tocaram 0 Ainda não

Grave um vídeo tocando D Is For Dangerous e nos envie!

00:00 / 00:00
Outros vídeos desta música
Repetir Qualidade Automático
Outros vídeos desta música
00:00 / 00:00
Automático

Cifra Club Pro

Aproveite o Cifra Club com benefícios exclusivos e sem anúncios
Cifra Club Pro
Aproveite o Cifra Club com benefícios exclusivos e sem anúncios
OK