Cifra Club

Aprenda

Adios Nonino

Astor Piazzolla

Cifra: Principal (violão e guitarra)
Tom: E
Time Signature: 3/4

||-------------------------------------|----------------------------------|
||-------------------------0---3-2-1---|-(1)----------5-------3-------1---|
||--*--------------0---3---------------|--------------4-------2-------0---|
||--*----------2-----------------------|----------------------------------|
||---------2---------------------------|----------------------------------|
||-----0-------------------------------|------1-2-3-------2-------0-------|

E|----------------------------------| -------------------------------------||
B|----------------------0---3-2-1---| -(1)----------7-------5-------4------||
G|------------------3---------------| --------------5-------4-------2---*--||
D|----------1---4-------------------| ----------------------------------*--||
A|------2---------------------------| ------------------------------------||
E|--2-------------------------------| ------3-4-5--------3-------2----------||

E|------0---0-------0---0-----------| ------0---0-------0---0-----------|
B|------0---0-------2---2-----------| ------1---1-------0---0-----------|
G|------0---0-------3---3-----------| ------2---2-------2---1-----------|
D|----------------------------------| ----------------------------------|
A|----------------------------------| ----------------------------------|
E|--3-------3-------2-------2-------| --1-------1-------0-------0-------|

E|--------------0-------7---10-7-8---| -(8)------------------------------|
B|----------1-------8----------------| ------1---3---4-------3-----------|
G|------2-----------9----------------| ------2-------5-----------5-------|
D|------2----------------------------| ------2-------5-----------4-------|
A|--0--------------------------------| --------------------------5-------|
E|-----------------------------------| ----------------------------------|

E|----------------------5---8-5-7---| -(7)------------------------------|
B|--------------3---7---------------| ------0---1---3-------1---0-------|
G|----------4-------7---------------| ------0-----------0-------0-------|
D|------4---------------------------| ------2-----------2-------2-------|
A|----------------------------------| ----------------------------------|
E|--3-------------------------------| ----------------------------------|

                                                               __3__
                                       /.\                    |  |  |
E|--------------0---3---6---15-------| --14------------------------------|
B|----------2-------2---5-------14---| --10-------------7-------8--7-----|
G|------3-----------3---6------------| --11-------------6-------------9--|
D|-----------------------------------| ----------------------------------|
A|-----------------------------------| ----------------------------------|
E|-/2--------------------------------| -----------------6----------------|
  rall.

                                   Slowly
E|---------------------------------| |--------------------------5---3---|
B|--7--------------5-------4-------| |--3-------------------------------|
G|--5--------------5-------5-------| |----------4-------2-------5-------|
D|-----------------5-------4-------| |------0-------0-------0-----------|
A|-------------------------5-------| |----------------------------------|
E|--5--------------5---------------| |--3-------------------------------|

                                                              __3__
                                                             |  |  |
E|--------------------------7---5---| ----------------------------0--1--|
B|--3-------------------------------| --3----------------------3--------|
G|----------2-------2-------7-------| ---------2-------2----------------|
D|------0-------0-------0-----------| -----0-------0-------0------------|
A|----------------------------------| -------------------------3--------|
E|--2-------------------------------| --1-------------------------------|

E|--1---------------0---------------| --0-----------------------7---5---|
B|----------3---------------0-------| ----------1-----------1-----------|
G|------2-------2-------------------| ------------------4---------------|
D|----------------------2-------2---| ------2-------2-------------------|
A|--2-------0-----------------------| --0-----------0-----------0-------|
E|------------------4-------0-------| ----------------------------------|

                            __3__
                           |  |  |
E|--0-----------------------8--7--5--| --0-----------------------2---3---|
B|----------1-----------1------------| ----------1-------0---1-----------|
G|------------------4----------------| ------------------2---------------|
D|------2-------2--------------------| ------2-------2-------------------|
A|-----------------------------------| ----------------------------------|
E|--3-----------3--------------------| --2-----------2-------------------|

E|--3---------------2---------------| ------------------9-------7-------|
B|----------2---0-----------3---2---| ----------7-------7---------------|
G|------0---0-----------3---3-------| --6---------------7---------------|
D|--------------------------2-------| --4---------------9---------------|
A|--4-------------------------------| --5---------------9---------------|
E|----------0-------2---------------| ----------------------------------|

                                               __3__
                                              |  |  |
E|--7--------------5----------------| --5----------3--2--3-----------3---|
B|--5--------------5----------------| --3----------------3---------------|
G|----------------------------------| --0----------------0---------------|
D|----------------------------------| -----------------------------------|
A|--4-------4-------4-------4-------| --2-------2--------2-------2-------|
E|----------------------------------| -----------------------------------|

                            __3__
                           |  |  |
E|--3---------------2----------------| ------------------3-------2-------|
B|--2---------------2----------------| ------1-------0-1-1-------1-------|
G|-----------------------------------| ------0-----------2-------2-------|
D|-----------------------------------| ------2---------------------------|
A|--1-------1-------1----------2--1--| --0---------------0---------------|
E|--------------------------2--------| ----------------------------------|

E|--2---------------0---------------| --0-----------------------0-------|
B|----------------------------------| ----------3-------3---------------|
G|----------4---------------4-------| ------3-------3-------3-------3---|
D|------2-------2-------2-------2---| ----------0-------0-------2-------|
A|----------------------------------| ----------------------------------|
E|--4---------------4---------------| --3-------------------------------|

                                      A tempo
E|--2--------------------------------| |--------------------------5---3---|
B|--------------2---5--------4-------| |--3-----------3-----------3-------|
G|----------3-------5--------5-------| |--4-----------4-----------4-------|
D|------2-----------5--------4-------| |--5-----------5-------------------|
A|---------------------------5---5---| |----------------------------------|
E|--2---------------5---5------------| |--3---3---3---3---3---3---3-------|

                                                               __3__
                                                              |  |  |
E|--------------------------7---5---| -----------------------------0--1--|
B|--3-----------3-----------5-------| --3-----------3-----------3--------|
G|--2-----------2-----------5-------| --2-----------2--------------------|
D|--0-----------0-----------5-------| --3-----------3-----------3--------|
A|----------------------------------| --------------------------0--------|
E|--2---2---2---2---2---2-----------| --1---1---1---1---1---1------------|

E|--1-----------1-----------0-------| --0-----------0-----------7---5---|
B|--3-----------3-----------3-------| --1-----------1-----------5---5---|
G|--2-----------2-----------4-------| --4-----------2-----------5---5---|
D|----------------------------------| ----------------------------------|
A|--2---2---2---2---2---0-----------| --0---0---0---0---0---0---0-------|
E|--------------------------4---4---| ----------------------------------|

                            __3__
                           |  |  |
E|--0-----------0-----------8--7--5--| --0-----------0-----------10--8---|
B|--0-----------0-----------5--------| --1-----------1-------------------|
G|--2-----------0-----------5--------| --2-----------2-------------------|
D|--------------------------5--------| --------------------------12--10--|
A|-----------------------------------| ----------------------------------|
E|--3---3---3---3---3---3------------| --2---2---2---2---2---2-----------|

E|--8---------------7---------------| ----------7-------14------12------|
B|----------10------------------7---| ----------8-------12------12------|
G|------9-------9-----------8-------| ----------7-------12------12------|
D|----------------------7-----------| ------------------12------12------|
A|--9-------------------------------| --7-------------------------------|
E|------------------7---------------| ----------------------------------|

E|--12------7-------7-------3-------| --3-------2-------2-------0-------|
B|--12------8-------8-------0-------| --0-------0-------0---------------|
G|--12------9-------8-------0-------| --0-------0-------0---------------|
D|--11------9-------9-------2-------| --1-------0-----------------------|
A|----------------------------------| ------------------4---------------|
E|----------------------------------| ----------------------------------|

E|--10----------------------8---10--| --7-----------------------5---7---|
B|------7-----------6---------------| ------5-----------4---------------|
G|------7-----------7---------------| ------5-----------5---------------|
D|------7-----------6---------------| ------5-----------4---------------|
A|------------------7---------------| ------------------5---------------|
E|------7---------------------------| ------5---------------------------|

                                     S
E|--2-----------------------2---3---| |--0-------------------------------||
B|--3-------2-------1---------------| |--------------1-------0-----------||
G|--3-------3-------2---------------| |------------------------------0---||
D|------------------1-------4---5---| |----------------------------------||
A|------------------2---------------| |------1-2-3-------2---------------||
E|--2-------------------------------| |--0-----------------------3-------||
       rall.

D. C. to Segno and Coda

 CODA                       /.\        A tempo
||--------------------------0-------|----------------------------------|
||--5-------5-------5-------3-------|----------------------0---3-2-1---|
||--4-------3-------3-------2-------|--------------0---3---------------|
||--5-------5-------2---------------|----------2-----------------------|
||--3-------3-----------------------|------2---------------------------|
||------------------2-------1-------|--0-------------------------------|

E|------------------6---7---10-9-8---| -(8)--------------12\-------------||
B|-(1)----------8--------------------| ------------------0---------------||
G|----------9------------------------| ------------------0---------------||
D|------9----------------------------| ------------------9\--------------||
A|-----------------------------------| ------------------10\-------------||
E|-----------------------------------| ------------------0---------------||
Composição de Astor Piazzolla
Colaboração e revisão:
  • Niko Martin
  • Matheus Assis
4.549 exibições
    • ½ Tom
    • A
    • Bb
    • B
    • C
    • Db
    • D
    • Eb
    • E
    • F
    • F#
    • G
    • Ab
  • Adicionar à lista

    0 comentários

    Mostrar mais comentários

    Conseguiu tocar?

    0 Tocaram 0 Ainda não

    Grave um vídeo tocando Adios Nonino e mande pra gente!

    00:00 / 00:00
    outros vídeos desta música
    repetir qualidade Automático
    Outros vídeos desta música
    00:00 / 00:00
    Automático

    Cifra Club Pro

    Aproveite o Cifra Club com benefícios exclusivos e sem anúncios
    7 dias grátis
    Cifra Club Pro
    Aproveite o Cifra Club com benefícios exclusivos e sem anúncios
    7 dias grátis
    OK