Cifra Club

Basket Case (cover)

Avril Lavigne

Tab de baixo: Principal
exibições 2.960
E|-----------------------------| 
A|-----------------------------| 
D|---66--44--33-----------6----| 
G|----------------44--66-------| 
Isso após a Guitarra: 
 
E|-------------8h10p8----------| 
A|-----------------------------| 
D|-----------------------------| 
G|-----------------------------| 
 
Verso 1 : 
E|------------------------------------------| 
A|------------------------------------------| 
D|--6-6-----------------------44------------| 
G|-------6-6---8-8----333-4-4-----66--66----| 
 
Refrão: "Sometimes I give Myself the Creeps ..." 
E|-------------------------------------| 
A|-------------------------8-6-5 5h6--| 
D|---------------66--------------------| 
G|----44---66--------------------------| 
 
E|----------------------------------| 
A|---------------------5h6p5--------| 
D|-------------66-------------------| 
G|---44---66------------------------| 
 
E|-------------------------------------| 
A|-------------------------------------| 
D|--------------66--44-3-33------------| 
G|---44---66---------------------------| 
 
E|----------------------------------------| 
A|----------------------------------------| 
D|------------------6---------------------| 
G|---44----666---------66-----88--66------| 
 
E|---------------------------------| 
A|---------------------------------| 
D|---6-----------------------------| 
G|------66--88---66----------------| 
 
Parte : " Grasping to control " 
E|-------------------------------------------| 
A|---------------------------6/8-------------| 
D|-------------------------------------------| 
G|---44444------666666-----------------------| 
 
Repete:2X 
Verso 1 : 
E|------------------------------------------| 
A|------------------------------------------| 
D|--6-6-----------------------44------------| 
G|-------6-6---8-8----333-4-4-----66--66----| 
 
Refrão :  
E|-------------------------------------| 
A|-------------------------8-6-5 5h6--| 
D|---------------66--------------------| 
G|----44---66--------------------------| 
 
E|----------------------------------| 
A|---------------------5h6p5--------| 
D|-------------66-------------------| 
G|---44---66------------------------| 
 
Final :  
E|------------------------------------------------| 
A|---------55--66--55--------66-------------------| 
D|---------------------------------------66-------| 
G|-----------------------88-------8/44------66----| 
 
E|-------------------------------------------------| 
A|---------55--66--55--------66--------------------| 
D|---------------------------------------6~--------| 
G|-----------------------88-------8/4~------6~/16--| 
 
E|-------------------------------------------| 
A|-------------------------------------------| 
D|--------------6~---------------------------| 
G|-----4~-------------6~---------------------| 
Colaboração e revisão:
  • Hellektra

0 comentários

    mostrar mais comentários

    Conseguiu tocar?

    0tocaram0ainda não

    Grave um vídeo tocando Basket Case (cover) e mande pra gente!

    00:00 / 00:00
    outros vídeos desta música
    repetirqualidadeautomática
    Outro vídeos desta música
      00:00 / 00:00
      automática
      OK