Cifra Club

Canção de Pedro

Banda Dom

Cifra: Principal (violão e guitarra)
tom: Eb (forma dos acordes no tom de D) Capotraste na 1ª casa
[Intro]  A  F#m  D  A/C#  Bm  E

E|------------------------------------------|
B|----10--9--10--7--------------------------|
G|------------------9-----------------------|
D|------------------------------------------|
A|--0---------------------------------------|
E|------------------------------------------|

E|------------------------------------------|
B|----10--9--10--7--------------------------|
G|------------------9-----------------------|
D|------------------------------------------|
A|--9---------------------------------------|
E|------------------------------------------|

E|-------------------------------------------|
B|--------2--3-------2--3-----2--3-----------|
G|-----2----------2--------------------------|
D|--0----------------------------------------|
A|--------------4----------2-----------------|
E|-------------------------------------------|

E|-------------------------------------------|
B|--------------12---------------------------|
G|--------1--9-------------------------------|
D|-----2-------------------------------------|
A|-------------------------------------------|
E|--0----------------------------------------|

 A        F#m
Pescador, fixo o meu olhar
        D      Bm
No horizonte, desse imenso mar
 G                 E
Sei que não posso mais voltar
 A          F#m                        D
Sigo assim, certo da missão que tenho que cumprir
 Bm            G        D/F#   E4  E
Continuar, os passos do meu Senhor

 A                   D    C#m                  F#m
Eu vou jogar minhas redes onde o Senhor me mandar
 D                   Bm       G          D/F#      E
Certo de que vou enchê-las de almas pro reino de Deus

 A          F#m
Sim senhor, eu te amo
           D
De todo o coração
     Bm
Não vou te negar
 G              E
Vou cuidar dos seus
 A              F#m
Vou falar, sem medo
                  D
A toda a alma que encontrar
 Bm
Vou remar
     G      D/F#  E4  E
Pra dentro desse mar

 A                   D    C#m                  F#m
Eu vou jogar minhas redes onde o Senhor me mandar
 D                   Bm       G          D/F#      E
Certo de que vou enchê-las de almas pro reino de Deus

 D     E/D     A     E/G#     F#m
Eu um simples Pedro, um pescador
  D                    Dm
Chamado por Deus a buscar outro mar

[Solo]  A  E/G#  G  D/F#  F  C | Bm  Bm  G (F)

 A                   D    C#m                  F#m
Eu vou jogar minhas redes onde o Senhor me mandar
 D                   Bm       G          D/F#      E
Certo de que vou enchê-las de almas pro reino de Deus

 A                   D    C#m                  F#m
Eu vou jogar minhas redes onde o Senhor me mandar
 D                   Bm       G          D/F#      E
Certo de que vou enchê-las de almas pro reino de Deus


 D     E/D     A     E/G#     F#m
Eu um simples Pedro, um pescador
  D                    Dm
Chamado por Deus a buscar outro mar

(A  A4  A4  A)
00:00 / 00:00
Outros vídeos desta música
Repetir
Outros vídeos desta música
Composição de Bruno Camurati
177.153 exibições
    • ½ Tom
    • A
    • Bb
    • B
    • C
    • Db
    • D
    • Eb
    • E
    • F
    • F#
    • G
    • Ab
  • Adicionar à lista

    0 comentários

    Ver todos os comentários

    Entre para oCifra Club PRO

    Tenha acesso a benefícios exclusivos no App e no Site

    • Chega de anúncios

    • Prioridade de compra em lançamentos

    • Mais recursos no app do Afinador

    • Atendimento Prioritário

    • Descontos nos produtos Cifra Club

    • Ajude a produzir mais conteúdo

    00:00 / 00:00

    Cifra Club Pro

    Aproveite o Cifra Club com benefícios exclusivos e sem anúncios
    Cifra Club Pro
    Aproveite o Cifra Club com benefícios exclusivos e sem anúncios
    OK