Cifra Club

In My Time Of Dyin'

Bob Dylan

Cifra: Principal
exibições 2.846
Tom: C
|-----------------0-------|-------------------|
|-----------------0-------|-------------------|
|-----------2/3-----1-----|-------------------|
|-------------------------|-3---0-------------|
|-------------------------|-----------0-----3-|
|-0-----0-----0---------0-|-------0-----0-----|

(intro)

-------------|-----0-----------0-------|-------------------------|-----0-------------0-----|
-------------|-----0-----------0-------|-------------------------|-----0-----------0-0-----|
-------------|-----------2/3-----2\1---|-------------------------|-----------2/3---3-----1-|
-----------0-|-----------------------3-|-3---0-----------------0-|-------------------------|
-----3-------|-------------------------|-0---------0-----3-------|-------------------------|
-0-----0-----|-0-----0-----0-----------|-------0-----0-----0-----|-0-----0-----0-----0-----|

|-------------------------|-----0-----------0-------|-----------0----/7-------|
|-------------------------|-----0-----------0-------|-----------0-----0-------|
|-------------------------|-----------2-----3-1-----|-------------------------|
|-3---0-----0-----------0-|-------------------------|-3-----------------------|
|-3p0-------------3-------|-------------------------|-0---0-------------------|
|-------0-----0-----0-----|-0-----0-----0---------0-|-------0-----0-----0---0-|

|-5-----3---0-----------3-|----p0----/12----12------|-----12------------------|
|-0---------------0-----3-|----p0----/12------------|-------------------------|
|-------------------------|-------------------------|-----------0-------------|
|-------------------------|-----0-------------------|-------------0---------0-|
|-------------------------|-------------------------|-----------------3-------|
|-0---0-0---0-0-----0-----|-0-----0---0-0-----0-----|-0-----0-----0-----0-----|

|-----0-------------------------|-------------------------|
|-----0-------------------------|-------------------------|
|-----0-------------------------|-------------------------|
|-------------------------------|-------------------------|
|-------------------------------|-------------------------|
|-0-----0-----0-----0-----0-----|-0-----0-----0-----0-----|
                        Well,     In  my    time    of  dyin

|-----------------0-------|-------------------------|-----------------------0-|
|-------------------------|-------------------------|-----------0-----------0-|
|-------------------------|-------------------------|-------------------------|
|-----0-----3-------------|-------------------------|-----3-----------0-------|
|-----------------------0-|-----3-----0-----3-----0-|-------------------------|
|-0-----0-----0-----0-----|-0-----0-----0-----0-----|-0-----0-----0-----0-----|
                  don't  want   no -  body to     moan                      All

|-------------------------|-------------------------|-------------------------|
|-------------------------|-------------------------|-------------------------|
|-------------------------|-------------------------|-------------------------|
|-------------------------|-------------------------|-----------3-----0-------|
|-----0-----3-----0-----3-|-----0-----3-----0-----3-|-----0-----------------3-|
|-0-----0-----0-----0-----|-0-----0-----0-----0-----|-0-----0-----0-----0-----|
  I         want   for  you     to    do, is      take    my      bo-dy     home

|-----------------------0-|-----------0-------------|-------------------------|
|-----------------------0-|-----------0-------------|-------------------------|
|-------------------------|-----0-----------3-----1-|-------------------------|
|-----------------0-------|-------------------------|-----3-----0-----------0-|
|-----0-----3-------------|-------------------------|-----------------3-------|
|-0-----0-----0-----0-----|-0-----0-----0-----0-----|-0-----0-----0-----0-----|
            Well  well  well         so I can die     ea -  sy, well  well  well

|---0-------7/12--12----0-|-----------------0-------|-----0-----------0-------|
|---0-------7/12--12----0-|-----------------0-------|-----0-----------0-------|
|-----------------------0-|-------------------------|-----------1/3---3-1-----|
|-------------------------|-----------0-------------|-------------------------|
|-------------------------|-----3-------------------|-------------------------|
|-0-----0-----0-----0-----|-0-----0-----0-----0-----|-0-----0-----0---------0-|
                                      well  well  well         so I can die

|-------------------------|-------------------------|-------------------------|
|-------------------------|-------------------------|-------------------------|
|-------------------------|-------------------------|-------------------------|
|-3---0-----------------0-|-------------------------|-----------0-------------|
|-----------0-----3-------|-----3-----0-----3-----0-|-----3-----------3-----0-|
|-------0-----0-----0-----|-0-----0-----0-----0-----|-0-----0-----0-----0-----|
  ea -  sy, Je-sus gonna make up,     Jesus   gonna make  up,   Jesus   gonna make

|-------------------------|-----------------0-----7/|(12)-12-----/7-----5-----|
|-----------------------0-|-----------------0-----7/|(12)-12------------------|
|-----------------------3-|-------------------------|-----------0-------------|
|------------0----3-------|-----------0-------------|-----------0-------------|
|-----3-----------------0-|-----3-------------------|-------------------------|
|-0-----0-----0-----0-----|-0-----0-----0-----0-----|-0-----0-----0---0-0---0-|
  up my dying     bed

|-3---0-----------------0-------|----------------0-------|------------------0-------|
|-----------------------0-------|------------------------|--------------------------|
|-----------0-----0-------------|----------2--/3---1-----|-----------2/3------1-----|
|-------------------------------|----0-------------0-----|-3---0--------------------|
|-----------------------------3-|------------------------|--------------------------|
|-0-----0-----0-----0-----0-----|0-----0-----0---------0-|-------0-----0----------0-|

|-----------------------0-|----------0--------------|-----------0-----------0-|
|-----------------3-------|-----------0-------------|-------------------------|
|---------1/2/3---3-------|----/3-----0-3-----3-----|-------------------------|
|-3---0-------------------|-----0-------3-----3---0-|-----------------0-------|
|-------------------------|-------------3p0---------|-----0-------------------|
|-------0-----0-----0-----|-0-----0-----0-----0-----|-0-----0-----0-----0-----|
Well, in my time of dying don't want nobody to mourn
All I want for you to do is take my body home
Well, well, well, so I can die easy
Well, well, well
Well, well, well, so I can die easy
Jesus gonna make up, Jesus gonna make up
Jesus gonna make up my dying bed.

Well, meet me Jesus, meet me, meet me in the middle of the air
If these wings should fail to me,
Lord, won't you meet me with another pair?
Well, well, well, so I can die easy
Well, well, well
Well, well, well, so I can die easy
Jesus gonna make up, Jesus gonna make up
Jesus gonna make up my dying bed.

Lord, in my time of dying don't want nobody to cry
All I want you to do is take me when I die
Well, well, well, so I can die easy
Well, well, well
Well, well, well, so I can die easy
Jesus gonna make up, Jesus gonna make up
Jesus gonna make up my dying bed.
Acordes para:

    0 comentários

      mostrar mais comentários

      Conseguiu tocar?

      0tocaram0ainda não

      Grave um vídeo tocando In My Time Of Dyin' e mande pra gente!

      00:00 / 00:00
      outros vídeos desta música
      repetirqualidadeautomática
      Outro vídeos desta música
        00:00 / 00:00
        automática
        OK