Cifra Club

Aprenda

Prazer por Prazer

Chrystian & Ralf

Cifra: Principal (violão e guitarra)
Tom: C
[Intro]

E|---14------11/12-------|
B|-----------------12-9--|
G|---------------------11|
D|-----------------------|
A|-----------------------|
E|-----------------------|

 C                G             Am                    F
Sozinho mais uma noite você na cabeça eu só penso em nós
  C                 G                  F           C
Qualquer prazer por ai se não for com você não serve
 C            G                         F            C
Não quero prazer por prazer se não for com você não serve
Em          Am                        F                      C
   Se fecho os meus olhos eu vejo os seus olhos olhando nos meus
Em          Am             F            G7
   Se beijo outra boca eu sinto na boca o gosto do beijo seu
        C       Em                    F        G7
Querer tanto assim é mais que loucura é paixão é amor

E|------------|----------|-------|-------|------|-12--|----------|-11-12-14|
B|-----4-2---2|---4-2----|----4~-|----4-7|-7-9-7|---9-|-9-7--7/12|---------|
G|--------4---|------4-1-|-6-4--4|-6-4---|------|-----|----7-----|---------|
D|--4---------|-4-------4|-------|-------|------|-----|----------|---------|
A|------------|----------|-------|-------|------|-----|----------|---------|
E|------------|----------|-------|-------|------|-----|----------|---------|
Composição de Carlos Randall / Danimar
Colaboração e revisão:
  • Marcos Paulo
  • Lázaro Góes
  • Daniely Coelho
132.241 exibições
    • ½ Tom
    • A
    • Bb
    • B
    • C
    • Db
    • D
    • Eb
    • E
    • F
    • F#
    • G
    • Ab
  • Adicionar à lista

    0 comentários

    Mostrar mais comentários
    00:00 / 00:00
    outros vídeos desta música
    repetir qualidade Automático
    Outros vídeos desta música
    00:00 / 00:00
    Automático
    OK