Cifra Club

Lick 2

Cifra Club

Cifra: Principal (violão e guitarra)
tom: Bm
E|-15-14-12--------------------------------------------|
B|----------15-14-12-----------------------------------|
G|-------------------14-12-11----------12-11-9---------|
D|----------------------------14-12-11---------12-11-9-|
A|-----------------------------------------------------|
E|-----------------------------------------------------|

E|-----------------------------------------------------|
B|-----------------------------------------------------|
G|-11-9-7----------------------------------------------|
D|--------11-9-7---------------------------------------|
A|----------------10-9-7-------------------------------|
E|------------------------10-9-7-5/7~------------------|

00:00 / 00:00
Outros vídeos desta música
Repetir
Outros vídeos desta música
Compositor não encontrado.
Colaboração e revisão:
  • Getúlio Vasconcelos
293 exibições
    • ½ Tom
    • Am
    • Bbm
    • Bm
    • Cm
    • C#m
    • Dm
    • Ebm
    • Em
    • Fm
    • F#m
    • Gm
    • G#m
  • Adicionar à lista

    0 comentários

    Ver todos os comentários

    Conseguiu tocar?

    2 Tocaram 0 Ainda não

    Grave um vídeo tocando Lick 2 e nos envie!

    Relacionados

    Entre para oCifra Club PRO

    Tenha acesso a benefícios exclusivos no App e no Site

    • Chega de anúncios

    • Prioridade de compra em lançamentos

    • Mais recursos no app do Afinador

    • Atendimento Prioritário

    • Descontos nos produtos Cifra Club

    • Ajude a produzir mais conteúdo

    00:00 / 00:00

    Cifra Club Pro

    Aproveite o Cifra Club com benefícios exclusivos e sem anúncios
    Cifra Club Pro
    Aproveite o Cifra Club com benefícios exclusivos e sem anúncios
    OK