Cifra Club

O Meu Anjo Azul (Still Loving You)

Cleiton e Camargo

Cifra: Principal (violão e guitarra)
Tom: A#

Introdução: (Gm Gm/F Gm/Eb A#6 D7) 2x

Tablatura da introdução:

   Gm       Gm/F     Gm/Eb              A#6          D7                       
E|---6--------6--------6------9-8-6-------6------------5---------------------|
B|-----8--------8--------8-----------8--8----8-------7-----7-----------------|
G|-------7--------7--------7------------7------7-----5-------5---------------|
D|-0------------------------------------8--------8---7---------7-------------|
A|----------8--------6------------------6------------5-----------------------|
E|---------------------------------------------------------------------------|
 
   Gm       Gm/F     Gm/Eb              A#6          D7                       
E|---6--------6--------6------9-8-6-------6------------5---------------------|
B|-----8--------8--------8-----------8--8----8-------7-----7-----------------|
G|-------7--------7--------7------------7------7-----5-------5---------------|
D|-0------------------------------------8--------8---7-----------------------|
A|----------8--------6------------------6------------5-----------------------|
E|---------------------------------------------------------------------------|

Versos 1 e 2:

   Gm                                                                         
E|---6-----6-----6--|---6-----6-----6-|---6-----6-----6-|---6-----6------6---|
B|-----8-----8------|-----7-----7-----|-----7-----7-----|-----7-----7--------|
G|-------7-----7----|-------8-----8---|-------8-----8---|-------8-----8------|
D|-0----------------|-0---------------|-0---------------|-0------------------|
A|------------------|-----------------|-----------------|--------------------|
E|------------------|-----------------|-----------------|--------------------|
                                                                              
   A                                    D                                     
E|---9-----9-----9--|----9-----9----9-|---3-----3-----3-|---3-----3-----3----|
B|-----8-----8------|------8-----8----|-----2-----2-----|-----2-----2--------|
G|-9-----9-----9----|--------9-----9--|-------3-----3---|-------3-----3------|
D|------------------|-11--------------|-0---------------|-0------------------|
A|------------------|-----------------|-----------------|--------------------|
E|------------------|-----------------|-----------------|--------------------|

Verso 1:
--------

Gm
Bye, nunca mais

Eu quero pensar em você
            A                D
Me deixa em paz, me deixa em paz
Gm
Não, hoje não

O amor que um dia eu te dei
             A                  D
Me fez muito  mal, me fez muito  mal 

Solo:

E|---------------------------------------------------------------------------|
B|---------------------------------------------------------------------------|
G|------2h3-5-----3p2h3--3p2h3--2------2--3--5--3--5--^^^^^^^^-7-------------|
D|-3/5------------------------------5------------------slowly----------------|
A|---------------------------------------------------------------------------|
E|---------------------------------------------------------------------------|
                                                                           
                                                                               
E|----------------------------------------10-13-13^15------------------------|
B|-------10h11-13---11p10h11-----10-11-13-------------13^15v13-11-13^^^^15---|
G|-10/12----------------------12------------------------------------slowly---|
D|---------------------------------------------------------------------------|
A|---------------------------------------------------------------------------|
E|---------------------------------------------------------------------------|

Verso 2:
--------
Gm
Bye, foi demais

Não quero gostar de ninguém
           A              D
Já sei o final eu só me dou mal 
Gm
Dou, só me dou

Pra quem nunca gosta de mim
           A              D
Já sei o final é sempre igual 

Refrão:
-------
Gm       Eb
 Nunca é tarde
Bb                F
Pra descobrir um amor
Gm     Eb
 De verdade
  Bb                 F
Alguém assim como eu sou
Gm    Cm
 Esse meu amor
  D            Gm
Virá com tanta luz
       Eb 
Quando amanhecer 
            F
O sol vai trazer
             Gm
O meu anjo azul

Introdução e Solo
Solo na segunda vez da introdução:

Solo:
E|----------------------------------------10-13-13^15------------------------|
B|-------10h11-13---11p10h11-----10-11-13-------------13^15v13-11-13^^^^15---|
G|-10/12----------------------12------------------------------------slowly---|
D|---------------------------------------------------------------------------|
A|---------------------------------------------------------------------------|
E|---------------------------------------------------------------------------|

Repete: Verso 2

Verso 2:

   Gm                                                                     C   
E|------------------|-----------------|-----------------|--------------------|
B|------------------|-----------------|-----------------|--------------------|
G|------------------|-------------3---|-----------------|-----------------5--|
D|-5--5----------5--|-5-------3h5-----|-5--5----------5-|-5---------------5--|
A|-5--5----------5--|-5---3h5---------|-5--5----------5-|-5---------------3--|
E|-3--3----------3--|-3---------------|-3--3----------3-|-3------------------|


Refrão: 2x 
-------

Gm       Eb
 Nunca é tarde
Bb                F
Pra descobrir um amor
Gm     Eb
 De verdade
  Bb                 F
Alguém assim como eu sou
Gm    Cm
 Esse meu amor
  D            Gm
Virá com tanta luz
       Eb [Lick A] 
Quando amanhecer 
       F
Me ensinando a viver
             Gm  Eb Bb F [Lick B]  
O meu anjo azul
            Gm  Eb Bb F  [Lick C]      
O meu anjo azul
            Gm  Eb Bb F
O meu anjo azul
            Gm  Eb Bb F
O meu anjo azul
            Gm  Eb Bb F Gm   
O meu anjo azul

[Lick A]

    Eb
E|---------------------------------------------------------------------------|
B|---------------------------------------------------------------------------|
G|---------------------------------------------------------------------------|
D|---------------------------------------------------------------------------|
A|--6--8--6--8--6--8---------------------------------------------------------|
E|---------------------------------------------------------------------------|
 
[Lick B]

E|---------------------------------------------------------------------------|
B|-13^15--15v13-11--10--11---11-11--10~~~~~----------------------------------|
G|---------------------------------------------------------------------------|
D|---------------------------------------------------------------------------|
A|---------------------------------------------------------------------------|
E|---------------------------------------------------------------------------|
 
[Lick C]

E|---------------------------------------------------------------------------|
B|-------------------10--11--10~~~~-13-11-13-11--13^15v13-11-13^15-13^15-----|
G|-10/12~~~~--10-12----------------------------------------------------------|
D|---------------------------------------------------------------------------|
A|---------------------------------------------------------------------------|
E|---------------------------------------------------------------------------|
exibições 26.499
Acordes para:

    0 comentários

    mostrar mais comentários

    Conseguiu tocar?

    2 tocaram 0 ainda não

    Grave um vídeo tocando O Meu Anjo Azul (Still Loving You) e mande pra gente!

    00:00 / 00:00
    outros vídeos desta música
    repetir qualidade Automático
    Outros vídeos desta música
    00:00 / 00:00
    Automático
    OK