Cifra Club

Aprenda

Fix You

Coldplay

Cifra: Versão 7 (violão e guitarra)
tom: Bb
=======
album X&Y
transcribed by Oliver Juhas (*)

Intro:
------
Eb      |Gm  Gm/Bb   |Cm      |Bb(/D)    |  


Verse1:
-------
         Eb                    Gm       Gm/Bb   Cm      Bb(/D)  etc.
When you try your best but you don't succeeeeeeeeeeeed
When you get what you want but not what you need
When you feel so tired but you can't sleep
Stuck in reverse

When the tears come streaming down your face
When you lose something you can't replace
When you love someone but it goes to waste
could it be worse?


Chorus:
-------
Ab         Eb   Bb 
    Lights will guide you home
Ab      Eb Bb 
    and i--gnite your bones
Ab        Eb   Bb
    And I will try to fix you


Verse2 (same as Verse1):
------------------------
High up above or down below
when you too in love to let it go
If you never try you'll never know
Just what your worth


Chorus:
-------
Lights will guide you home
and ignite your bones
And I will try to fix you


Solo (repeate twice, then go to Verse3):
----------------------------------------
Backing chords:
Eb   |     |Ab   |     |Eb   |     |Bb   |     |
Cm   |     |Ab   |     |Eb   |     |Bb   |     |


   Eb                                       Ab  
e|-----------------|----------------------|-----------------|----------------------|
h|-4-4-4-4-4-4-4-4-|-4-4-4-4/-11-11-11-11-|-4-4-4-4-4-4-4-4-|-4-4-4-4/-11-11-11-11-|
g|-3-3-3-3-3-3-3-3-|-3-3-3-3/-12-12-12-12-|-5-5-5-5-5-5-5-5-|-5-5-5-5/-12-12-12-12-|
D|-----------------|----------------------|-----------------|----------------------|
A|-----------------|----------------------|-----------------|----------------------|
E|-----------------|----------------------|-----------------|----------------------|
   e e e e e e e e   e e e e  e  e  e  e    e e e e e e e e   e e e e  e  e  e  e

   
   Eb                                       Bb
e|-----------------|----------------------|-----------------|-----------------|
h|-4-4-4-4-4-4-4-4-|-4-4-4-4/-11-11-11-11-|-4-4-4-3-3-3-3-3-|-3-3-3-3-3-3-3-3-|
g|-3-3-3-3-3-3-3-3-|-3-3-3-3/-12-12-12-12-|-3-3-3-3-3-3-3-3-|-3-3-3-3-3-3-3-3-|
D|-----------------|----------------------|-----------------|-----------------|
A|-----------------|----------------------|-----------------|-----------------|
E|-----------------|----------------------|-----------------|-----------------|
   e e e e e e e e   e e e e  e  e  e  e    e e e e e e e e   e e e e e e e e

   
   Cm                                       Ab
e|-----------------|----------------------|-----------------|----------------------|
h|-4-4-4-4-4-4-4-4-|-4-4-4-4/-11-11-11-11-|-4-4-4-4-4-4-4-4-|-4-4-4-4/-11-11-11-11-|
g|-5-5-5-5-5-5-5-5-|-5-5-5-5/-12-12-12-12-|-5-5-5-5-5-5-5-5-|-5-5-5-5/-12-12-12-12-|
D|-----------------|----------------------|-----------------|----------------------|
A|-----------------|----------------------|-----------------|----------------------|
E|-----------------|----------------------|-----------------|----------------------|
   e e e e e e e e   e e e e  e  e  e  e    e e e e e e e e   e e e e  e  e  e  e


  Eb                                        Bb
e|-----------------|----------------------|-----------------|-----------------|
h|-4-4-4-4-4-4-4-4-|-4-4-4-4/-11-11-11-11-|-4-4-4-3-3-3-3-3-|-3-3-3-3-3-3-3-3-|
g|-3-3-3-3-3-3-3-3-|-3-3-3-3/-12-12-12-12-|-3-3-3-3-3-3-3-3-|-3-3-3-3-3-3-3-3-|
D|-----------------|----------------------|-----------------|-----------------|
A|-----------------|----------------------|-----------------|-----------------|
E|-----------------|----------------------|-----------------|-----------------|
   e e e e e e e e   e e e e  e  e  e  e    e e e e e e e e   e e e e e e e e 




Verse3:
-------
Eb                   Ab
    Tears streaming     down your face
Eb                          Bb
    When you lose something you cannot replace
Cm                   Ab                    Eb        Bb 
    Tears streaming     down your face and IIIIIIIIIIIIII

Tears streaming down your face
I promise you I will learn from my mistakes
Tears stream down your face and I


Chorus:
-------
Ab         Eb   Bb
    Lights will guide you home
Ab      Eb Bb
    And i--gnite your bones
Ab        Eb   Bb             Eb        
    And I will try to fix you


=====================================================================
EXPLANATION:
------------
Gm/Bb   - Gm chord with Bb as bass tone
Bb(/D)  - you can play Bb major chord with D bass (but its up to you)
|       - bar separator, anyway listen to the song for correct timing
In solo:
4/12    - slide from 4th fret to 12th
e       - eight note
=====================================================================
Its simple and beautiful song. I like it the most from X&Y album.

You can play solo on the H string only, but I think this is 
closer to original and its fuller this way.

So tune up and play. Go falzeto singing - if you can :)

...Any correction? Contact me on *

(Sory for my english - I am Slovak.)
(C) Oliver Juhas, June 16th, 2005
*********************************************************************
*********************************************************************
Composição de Chris Martin / Guy Berryman / Jonny Buckland / Will Champion
4.608 exibições
    • ½ Tom
    • A
    • Bb
    • B
    • C
    • Db
    • D
    • Eb
    • E
    • F
    • F#
    • G
    • Ab
  • Adicionar à lista

    0 comentários

    Ver todos os comentários

    Conseguiu tocar?

    1 Tocaram 0 Ainda não

    Grave um vídeo tocando Fix You e nos envie!

    00:00 / 00:00
    Outros vídeos desta música
    Repetir Qualidade Automático
    Outros vídeos desta música
    00:00 / 00:00
    Automático
    Capítulos
    • Início
    • Tocando a música
    • Acordes da música
    • Ensinando ritmo Estrofes
    • Ensinando ritmo do Refrão
    • Ensinando ritmo Final
    • Encerramento

    Cifra Club Pro

    Aproveite o Cifra Club com benefícios exclusivos e sem anúncios
    Cifra Club Pro
    Aproveite o Cifra Club com benefícios exclusivos e sem anúncios
    OK