Cifra Club

Paradise

Coldplay

Tab de baixo: Principal
exibições 11.933
Intro - refrões - instrumental final 

G|-------------------------|-------------------------|
D|--------------3-2~~------|--------------3----------|
A|----------3-5------------|----------3-5---3~-------|
E|-653-6~------------------|-653-6~------------------|

01:42 ( Versos)
"When she was little girl, she expected the world,
but it flew away from her reach,bullets catch ih her teeths"...

G|-------------------------------|
D|-------------------------------|
A|------------------5~-5~-3~-----|
E|-6~-5~--5~-3~--6~--------------|

0 comentários

    mostrar mais comentários

    Conseguiu tocar?

    7tocaram0ainda não

    Grave um vídeo tocando Paradise e mande pra gente!

    00:00 / 00:00
    outros vídeos desta música
    repetirqualidadeautomática
    Outro vídeos desta música
      00:00 / 00:00
      automática
      OK