Cifra Club

Aprenda

Deus Não Falhará

Davi Sacer

Cifra: Principal (violão e guitarra)
tom: A
[Intro] F  C/E  F  C/E  D  E4  E

Am        G#°
  Pode acontecer
   C           D9
Que o dia não amanheça bem
         F    C/E
A má notícia que chegou
        F   C/E
A alegria que partiu
       E4 E
E a paz se foi

Am          G#°
  Enfrentando a dor
    C                D9
Não vou aceitar que este seja o meu fim
          F   C/E
Eu vou erguer a minha voz
          F      C/E
Eu vou clamar a Deus, pois sei
 D9            E4  E
Que ele virá me socorrer

    A
Posso estar no deserto
E/G#  F#m    E
Ou passando no vale
    D     A/C#
Mesmo assim estou certo
 Bm7     E
Deus me guiará
   A
Não importa o que eu vejo
 E/G# F#m         E
Não importa o que eu passe
    D       A/C#
Minha fé está firmada
   Bm7        E4   E
Pois Deus não falhará   jamais

( F  C/E  F  C/E  D  E4  E )

Am        G#°
  Pode acontecer
   C           D9
Que o dia não amanheça bem
         F    C/E
A má notícia que chegou
        F   C/E
A alegria que partiu
       E4 E
E a paz se foi

Am          G#°
  Enfrentando a dor
    C                D9
Não vou aceitar que este seja o meu fim
          F   C/E
Eu vou erguer a minha voz
          F      C/E
Eu vou clamar a Deus, pois sei
 D9            E4  E
Que ele virá me socorrer

    A
Posso estar no deserto
E/G#  F#m    E
Ou passando no vale
    D     A/C#
Mesmo assim estou certo
 Bm7     E
Deus me guiará
   A
Não importa o que eu vejo
 E/G# F#m         E
Não importa o que eu passe
    D       A/C#
Minha fé está firmada
   Bm7        E4   E
Pois Deus não falhará   jamais

    A
Posso estar no deserto
E/G#  F#m    E
Ou passando no vale
    D     A/C#
Mesmo assim estou certo
 Bm7     E
Deus me guiará
   A
Não importa o que eu vejo
 E/G# F#m         E
Não importa o que eu passe
    D       A/C#
Minha fé está firmada
   Bm7        E4  E
Pois Deus não falhará

[Solo] D  E/D  G  D/F#  A  D/E  E


E|-----10/12~--10-9------------------------------------|
B|-10--------------------10/12-12/14-------------------|
G|---------------------------------------13/9----------|
D|--------------------------------------------5/9~-----|
A|-----------------------------------------------------|
E|-----------------------------------------------------|

E|--------------------------------------|
B|----10----10/14-14/15-15/12-----------|
G|--9----9------------------------------|
D|--------------------------------------|
A|--------------------------------------|
E|--------------------------------------|

E|-----------------------------------|
B|---9-10-10/12-12/14-14/10----------|
G|-9---------------------------------|
D|-----------------------------------|
A|-----------------------------------|
E|-----------------------------------|

E|------------16-17-19-21-~----|
B|-15-17-19--------------------|
G|-----------------------------|
D|-----------------------------|
A|-----------------------------|
E|-----------------------------|

E|--------------------------------------------------------------|
B|---------------------------------------------------10-12-~----|
G|-------------------------------7-9-11--9-11-13----------------|
D|----------7-9-11---7-9-11-------------------------------------|
A|--7-9-11------------------------------------------------------|
E|--------------------------------------------------------------|

E|-------11/14-----14/16--17-17~------------|
B|-10---------------------------------------|
G|------------------------------------------|
D|------------------------------------------|
A|------------------------------------------|
E|------------------------------------------|

C           D/C
O dia não terminará
 Am G/B   C   D F            E4 E (Am  G/B C)
Sem que  eu ve__ja Deus agir em meu favor
C           D/C
O dia não terminará
 Am G/B   C   D F            E4 E
Sem que  eu ve__ja Deus agir em meu favor

    A
Posso estar no deserto
E/G#  F#m    E
Ou passando no vale
    D     A/C#
Mesmo assim estou certo
 Bm7     E
Deus me guiará
   A
Não importa o que eu vejo
 E/G# F#m         E
Não importa o que eu passe
    D       A/C#
Minha fé está firmada
   Bm7        E4  E
Pois Deus não falhará  jamais

    A
Posso estar no deserto
E/G#  F#m    E
Ou passando no vale
    D     A/C#
Mesmo assim estou certo
 Bm7     E
Deus me guiará
   A
Não importa o que eu vejo
 E/G# F#m         E
Não importa o que eu passe
    D       A/C#
Minha fé está firmada
   Bm7        E4  E
Pois Deus não falhará  jamais
Composição de Davi Sacer / Ronald Fonseca
139.449 exibições
    • ½ Tom
    • A
    • Bb
    • B
    • C
    • Db
    • D
    • Eb
    • E
    • F
    • F#
    • G
    • Ab
  • Adicionar à lista

    0 comentários

    Ver todos os comentários
    00:00 / 00:00
    outros vídeos desta música
    repetir qualidade Automático
    Outros vídeos desta música
    00:00 / 00:00
    Automático

    Cifra Club Pro

    Aproveite o Cifra Club com benefícios exclusivos e sem anúncios
    Cifra Club Pro
    Aproveite o Cifra Club com benefícios exclusivos e sem anúncios
    OK