Notificações Amigos pendentes

      Davi Sacer

      Deus Não Falhará

      109.789 exibições
      Tom: G
      Intro: F  C/E  F  C/E  D  E4  E
      
      Am           G#°
      Pode acontecer
                 C            D9
      Que o dia não amanheça bem
                  F         C/E
      A má notícia que chegou
                F      C/E
      A alegria que partiu
                 E4 E
      E a paz se foi
      Am            G#°
      Enfrentando a dor
               C                           D9
      Não vou aceitar que este seja o meu fim
                      F       C/E
      Eu vou erguer a minha voz
                     F           C/E
      Eu vou clamar a Deus, pois sei
       D9                   E4   E
      Que ele virá me socorrer
      
               A
      Posso estar no deserto
      E/G#       F#m       E
      Ou passando no vale
            D              A/C#
      Mesmo assim estou certo
      Bm7          E
      Deus me guiará
      A
      Não importa o que eu vejo
      E/G#     F#m            E
      Não importa o que eu passe
            D            A/C#
      Minha fé está firmada
         Bm7         Esus E       ( F    C/E   E4  E )
      Em quem não falhará         jamais
      
      (Repete Tudo)
      
      (Solo: D  E/D  G  D/F#  A  D/E E)
      
      
      E|-----10/12~~~10-9------------------------------------|
      B|-10--------------------10/12-12/14-------------------|
      G|---------------------------------------13/9----------|
      D|--------------------------------------------5/9~~~~--|
      A|-----------------------------------------------------|
      E|-----------------------------------------------------|
      
      
      E|--------------------------------------|
      B|----10----10/14-14/15-15/12-----------|
      G|--9----9------------------------------|
      D|--------------------------------------|
      A|--------------------------------------|
      E|--------------------------------------|
      
      
      E|-----------------------------------|
      B|---9-10-10/12-12/14-14/10----------|
      G|-9---------------------------------|
      D|-----------------------------------|
      A|-----------------------------------|
      E|-----------------------------------|
      
      
      E|------------16-17-19-21~~----|
      B|-15-17-19--------------------|
      G|-----------------------------|
      D|-----------------------------|
      A|-----------------------------|
      E|-----------------------------|
      
      
      E|--------------------------------------------------------------|
      B|---------------------------------------------------10-12~~----|
      G|-------------------------------7-9-11--9-11-13----------------|
      D|----------7-9-11---7-9-11-------------------------------------|
      A|--7-9-11------------------------------------------------------|
      E|--------------------------------------------------------------|
      
      
      E|-------11/14-----14/16--17-17~~~~---------|
      B|-10---------------------------------------|
      G|------------------------------------------|
      D|------------------------------------------|
      A|------------------------------------------|
      E|------------------------------------------|
      
      
      
      C                         D/C
      O dia não terminará
      Am G/B C D C/E   F                 E4 E   (Am G/B C)
      Sem que eu veja Deus agir em meu favor
      Am G/B C D C/E   F                 E4 E
      Sem que eu veja Deus agir em meu favor
      
                      A
      Posso estar no deserto
      E/G#       F#m       E/G#
      Ou passando no vale
            D              A/C#
      Mesmo assim estou certo
      Bm          E
      Deus me guiará
      A/C#                     E/G#
      Não importa o que eu vejo
             F#m            E/G#
      Não importa o que eu passe
            D            A/C#
      Minha fé está firmada
         Bm7               E          F#m7  E/G#      Bm7          E          A
      Em quem não falhará jamais                  E Deus não falhará jamais
        Composição: Davi Sacer / Ronald FonsecaColaboração e revisão:
        • cosmo_alves2
        • Junior Zilli
        • Inha
        • Raphael
        • +4

        Comentários 0

        140 .
        140 cancelar

        conseguiu tocar?

        covers

        Grave um vídeo tocando Deus Não Falhará e mande pra gente!

        Ex.: http://www.youtube.com/watch?v=0IvSvIwGdwk
        ver covers de outras músicas »
        0:00 / 0:00

        Capítulos

          1 versão de partiturasformatodownloadscontribuição
          play/pausefechar subir/descer velocidade
          6ª corda E5ª corda A4ª corda D3ª corda G2ª corda B1ª corda E
            acordes
            publicidade
            fechar
            ok