Cifra Club

Águas Profundas

David Quinlan

Tab de baixo: Principal
exibições 33.349
Parte 1
E| --------------8------8-5-3-5-----------------------------|
A|--------7---7---5-7-----------3-5-7-----------------------|
D|--5h7---5----------------------------5-7----------3---333-|
G|-------------------------------------------2-3-5-3---3----|

Parte 2
E|--------------------------------------------------------|
A|-----------------------12-10-12-------------------------|
D|--10------------12-------------10-121212/\14------------|
G|------10h12-10---10---------------------------12/\14-16-|

Parte 3
E|----------------------------------18----| 
A|------------19---------------17------17-| 
D|---------17---17/\20-15-17------15------|
G|--17-17---------------------------------|

0 comentários

    mostrar mais comentários

    Conseguiu tocar?

    5tocaram0ainda não

    Grave um vídeo tocando Águas Profundas e mande pra gente!

    00:00 / 00:00
    outros vídeos desta música
    repetirqualidadeautomática
    Outro vídeos desta música
      00:00 / 00:00
      automática
      OK