Cifra Club

Moon Over Marin

Dead Kennedys

Tab de baixo: Principal
Intro:
G -|-----------------------------------------------|
D -|-----------------------------------------------|
A -|-----------------------------------------------|
E -|--4h5-(8X)---4h5-(6X)--55555555----------------|

1º Riff:
G -|---------------------------------------------------------------------|
D -|---------------------------------------------------------------------|
A -|----------------------------------------------------5-5-5-5-4-4-4-4--|
E -|--5-5-5-5-5-5-5-5-5-3-3-3-3-3-3-3-3-7-7-7-7-7-7-7-7------------------|

2º Riff:
G -|-------------------------------------------------------------------------------|
D -|-------------------------------------------------------------------------------|
A -|------------------------------------------------------5-5-4-4------------------|
E -|--5-5-5-5-5-5-5-0-5-0-3-3-3-3-3-3-3-3-7-7-7-7-7-7-7-7---------5-5-5-5-5-5-5-5--|

3º Riff:
G -|---------------------------------------------------------------|
D -|---------------------------------------------------------------|
A -|------------------------------------------------------5-5-4-4--|
E -|--5-5-5-5-5-5-5-0-5-0-3-3-3-3-3-3-3-3-7-7-7-7-7-7-7-7----------|

4º Riff:
G -|-------------------------------------------------------------------------------------------|
D -|-------------------------------------------------------------------------------------------|
A -|--------------------------------------------------5-5-4-4---------5-5-4-4-7-7-7-7-7-7-7-7--|
E -|--5-5-5-5-5-5-5-5-3-3-3-3-3-3-3-3-7-7-7-7-7-7-7-7---------5-5-5-5--------------------------|

5º Riff:
G -|-----------------------|
D -|-----------------------|
A -|-----------------------|
E -|--4h5-(8X)---4h5-(8X)--|

6º Riff:
G -|-------------------|
D -|-------------------|
A -|------2---5-4------|
E -|--0-5---2-----5-2--|

7º Riff
G -|-------------------------------------------------------------------------------------------|
D -|-------------------------------------------------------------------------------------------|
A -|--0-0-0-4-7-4-2-0-------4-7-4-2-0-0-0-0-4-7-4-2-0-5-5-4-4-0-0-0-0-5-5-4-4-7-7-7-7-7-7-7-7--|
E -|------------------3-3-3--------------------------------------------------------------------|

8º Riff:
G -|------------------------------------------------------------------------|
D -|------------------------------------------------------------------------|
A -|------------------------------------------------------------------------|
E -|--4h5-(8X)--4h5-(8X)--4h5-(8X)--4h5-(4X)--4h5-(4X)--4h5-(3X)--4-4~--5~--|
exibições 340
Composição: Dead Kennedys Colaboração e revisão:
  • Mario Bueno

0 comentários

mostrar mais comentários

Conseguiu tocar?

1 tocaram 0 ainda não

Grave um vídeo tocando Moon Over Marin e mande pra gente!

00:00 / 00:00
outros vídeos desta música
repetir qualidade Automático
Outros vídeos desta música
00:00 / 00:00
Automático
OK