Cifra Club

Black Friday Cifra Club

When a Blind man cries

Deep Purple

Cifra: Versão 2 (violão e guitarra)
tom: A
intro:
e|--5--7--------5--7----------------5--7-------------------5--7-------|
B|----------------------7-10-10b12~------10b12-10---------------------|
G|--------9b11~-------7-----------------------------11\7-7------------|
D|------------------------------------------------------------------7-|
A|--------------------------------------------------------------7h9---|
E|--5--7--------5--7----------------5--7-------------------5--7-------|



riff 1:
                               2x
e|----------2--------2-------|
B|--------3---3----3---3-----|
G|--2--4--------4---------4--|
D|---------------------------|
A|--0--2--------2---------2--|
E|---------------------------|

riff 2:

e|---------4--------4-------------2------|
B|-------5---5----5---5---------3---3----|
G|--4--6-------6--------6--2--4-------4--|
D|---------------------------------------|
A|--2--4-------4--------4--0--2-------2--|
E|---------------------------------------|


riff 3:
                                                                                        2x
e-------------2-------2-----------5-------5------------10----------10-----------2------|
B|----------3---3---3---3-------7---7---7---7-------12----12----12----12------3---3----|
G|-----2~-4-------4---------4s7-------7--------7s12----------12----------2--4--------4-|
D|-2h4----4-------4---------4s7-------7--------7s12----------12------------------------|
A|--------2-------2---------2s5-------5--------5s10----------10----------0--2--------2-|
E|-------------------------------------------------------------------------------------|




riff 1:
If you're leaving, close the door.

riff 2:
I'm not expecting people anymore.

riff 1:
Hear me greaving, lying on the floor.

riff 2:
Whether I'm drunk or dead I really ain't too sure.



I'm a blind man, I'm a blind man.       |               
And my world is pale.                   | riff 3:                     
When a blind man cries,                 |              
Lord you know there ain't no sadder tale|

solo:
e|--------------------5---------------|-------------------------|----------------------------|
B|-----3--6^-6^-6^-6^---3-6^-6^-6^-6^-|-6^-3--2--3--5--3--2-----|--7-10b12-10b12-10b12-10b12-|
G|---4--------------------------------|----------------------4~-|----------------------------|
D|------------------------------------|-------------------------|----------------------------|
A|------------------------------------|-------------------------|----------------------------|
E|------------------------------------|-------------------------|----------------------------|

e|-------7-10-10b12-10-7----7-------------------------------------------------|
B|--7-10-----------------10---10p7---7----------------------------------------|
G|---------------------------------9---9p7-9s11---9h11-9------------9---------|
D|-------------------------------------------------------11p9-11-12---12-11-9-|
A|----------------------------------------------------------------------------|
E|----------------------------------------------------------------------------|

e|--------------------------------------------11---------------------11-------------------------|
B|----3-6^-6^-6^-6^----6^-6^-6^-6^---11b(12)-(12)-11b(12)---11b(12)-(12)--11b(12)---11b12-11b12-|
G|--4----------------4--------------------------------------------------------------------------|
D|----------------------------------------------------------------------------------------------|
A|----------------------------------------------------------------------------------------------|
E|----------------------------------------------------------------------------------------------|

e|--10b12-10-10b12-10-10b12-10-10b12---10b12-10-7----7-------------------|
B|------------------------------------------------10---10^-7-------------|
G|-----------------------------------------------------------9^-7-9p7----|
D|--------------------------------------------------------------------9~-|
A|-----------------------------------------------------------------------|
E|-----------------------------------------------------------------------|



riff 1:
If you're leaving, close the door.

riff 2:
I'm not expecting people anymore.

riff 1:
Hear me greaving, lying on the floor.

riff 2:
Whether I'm drunk or dead I really ain't too sure.



I'm a blind man, I'm a blind man.       |               
And my world is pale.                   | riff 3:                     
When a blind man cries,                 |              
Lord you know there ain't no sadder tale|


solo final:

e|-------------------------------7-10-10b12-10-7----7---------------------------------------|
B|-7-10-10b12-10b12-10b12-10b12------------------10---10p7-10b12-10-7h10--------------------|
G|-----------------------------------------------------------------------9b11-9-7-9^-7h9----|
D|---------------------------------------------------------------------------------------9~-|
A|------------------------------------------------------------------------------------------|
E|------------------------------------------------------------------------------------------|
00:00 / 00:00
Outros vídeos desta música
Repetir
Outros vídeos desta música
Composição de Ian Gillan / Ian Paice / Jon Lord / Ritchie Blackmore / Roger Glover
4.039 exibições
    • ½ Tom
    • A
    • Bb
    • B
    • C
    • Db
    • D
    • Eb
    • E
    • F
    • F#
    • G
    • Ab
  • Adicionar à lista

    0 comentários

    Ver todos os comentários

    Conseguiu tocar?

    1 Tocaram 0 Ainda não

    Grave um vídeo tocando When a Blind man cries e nos envie!

    Entre para oCifra Club PRO

    Tenha acesso a benefícios exclusivos no App e no Site

    • Chega de anúncios

    • Prioridade de compra em lançamentos

    • Mais recursos no app do Afinador

    • Atendimento Prioritário

    • Descontos nos produtos Cifra Club

    • Ajude a produzir mais conteúdo

    00:00 / 00:00

    Cifra Club Pro

    Aproveite o Cifra Club com benefícios exclusivos e sem anúncios
    Cifra Club Pro
    Aproveite o Cifra Club com benefícios exclusivos e sem anúncios
    OK