Enviar cifraEntrar

Toma o Teu Lugar

Diante do Trono

Cifra: Principal
exibições 142.768
Tom: G
Intro:  G   G   G   G   G  D/F# Em C   G  D/F# Em C   G
Riff Intro Parte 01:

E|--------------------------|--12--10--|--------------------------|
B|--12--13----15--12--10----|----------|--12--13----15--12--10----|
G|---------12---------------|----------|---------12---------------|
D|--------------------------|----------|--------------------------|

  (2X-Palhetada Alternada)              (2X-Palhetada Alternada)

Riff Intro Parte 02:

E|----------------|--------------|----------------|------------------------------|--------12----12-10-12--|
B|--12--13----15--|---12---10----|--12--13----15--|--12-12-12-12-12-12-12-12-12--|--10-10----10-----------|
G|---------12-----|--------------|---------12-----|------------------------------|------------------------|
D|----------------|--------------|----------------|------------------------------|------------------------|
  (4X cada nota)   (8x cada nota)  (4X cada nota)



G           C9/G            G
Estamos reunidos para adorar
G              C9/G          G
Ao único que é digno exaltar

Sequência de Harmônicos:

E|---------7H-------------|---------7H-------------|
B|---7H-------------------|---7H-------------------|
G|------5H-----5H---8H----|------5H-----5H---8H----|
D|------------------------|------------------------|


Em                              D9
Entronizado nos louvores do Teu povo

Sequência de Harmônicos: (Palhetada alternada rapidamente)
E|-------------------------|
B|---7...------------------|
G|------ 5...4...5...8...--|
D|-------------------------|

Riff 2ª Guitarra:

E|--------------------------------|-----------------|
B|--------------------------------|-----------------|
G|--9---11-12---19--16--12--7...--|--5...---7...----|
D|--------------------------------|-----------------|
A|--7---9--10---17--14--10--5...--|--3...---5...----|
E|--------------------------------|-----------------|


C      D9
Reina, reina!

G                         D9/F#
Toma o Teu lugar na minha vida
Em                           C
Toma o Teu lugar na minha família
Am                         C           Em  D/F#
Toma o Teu lugar, Rei da glória, reina!
G                         D9/F#
Toma o Teu lugar nesta cidade
Em                        C
Toma o Teu lugar nesta nação
Am                         C          Em   D/F#  G
Toma o Teu lugar, Rei da Glória, reina!

Intro: G  D/F#  Em  C

Em                              D9
Entronizado nos louvores do Teu povo
C      D9
Reina, reina!

(Refrão)
(Introdução)

Riff Guitarra:

E|-----------|------------|----------------------10--|
B|---5--5-0--|--8--7-7-5--|--12--10--10-8--8-7-8-8---|
G|-----------|------------|--------------------------|


C                    Em      D/F#
Levantai, ó portas, vossas cabeças
C                        Em     D/F#
Levantai-vos, ó portais eternos

C
Para que entre o Rei da glória
Am
Quem é esse Rei da glória?
C                         Em   D/F#
O Senhor dos exércitos, Jesus!

C
Para que entre o Rei da glória
Am
Quem é esse Rei da glória?
C                        Em     D/F#
O Senhor dos exércitos, Jesus!

(Refrão Lento )

Em                              D
Entronizado nos louvores do Teu povo
C      D9/F#  G
Reina, reina!
  • 1
  • 2
  • 3
  • 4
  • 5
  • 6
  • 7
  • 8
  • 9
  • 10
  • 11
  • 12
    Acordes para:

      0 comentários

        mostrar mais comentários

        Conseguiu tocar?

        13tocaram0ainda não

        Grave um vídeo tocando Toma o Teu Lugar e mande pra gente!

        00:00 / 00:00
        outros vídeos desta música
        repetirqualidadeautomática
        • automática
        Outro vídeos desta música
          00:00 / 00:00
          automática
          • automática
          Acordes para:violão e guitarra
          dificuldadeexibiçõescontribuições
          1 versão de Guitar Proformatodownloadscontribuição
          fecharplay/pause subir/descer velocidade
            acordes
            fechar
            OK
            Feedback