Cifra Club

Aprenda

Breaking The Chains

Dokken

Tab de baixo: Principal
&&&&&&&&&&&&&&&&&&&&&&&&&&&&&&&&&&&&&&&&&&&&&&&&&&&&&&&&&&&&&&&&&&&&&&&&&&&&&&&&
&&&&&&&&&&&&&&&&&&&&&&&&&&&&&&&&&&&&&&&&&&&&&&&&&&&&&&&&&&&&&&&&&&&&&&&&&&&&&&&&

Originally transcribed by Sebastian
Tuning: Standard

Intro/main riff: 

G:-------------------------------------------------------------------------------|  
D:-------------------------------------------------------------------------------|
A:7-7-5-5--------5-5-3-3-----------3-3-5-5-------5-5-7-7---------7-7-5-5---------|
E:--------0-0-0-0--------0-0-0-0-----------0-0-0-0--------0-0-0-0--------0-0-0-0-|

Between those riff is this:

G:------------------------------------------------|
D:------------------------------------------------|
A:5-5-7-7-7-7-5-5-5-3-3-2-2-0-0-0---------3-3-3-3-|   
E:--------------------------------0-0-0-0---------|

Play intro and then beetween thing until solo

Solo: Intro

And then play intro and beetween thing till the end.

&&&&&&&&&&&&&&&&&&&&&&&&&&&&&&&&&&&&&&&&&&&&&&&&&&&&&&&&&&&&&&&&&&&&&&&&&&&&&&&&&&
Composição de Don Dokken / George Lynch / Mick Brown
421 exibições

0 comentários

Mostrar mais comentários

Conseguiu tocar?

0 Tocaram 0 Ainda não

Grave um vídeo tocando Breaking The Chains e mande pra gente!

00:00 / 00:00
outros vídeos desta música
repetir qualidade Automático
Outros vídeos desta música
00:00 / 00:00
Automático

Cifra Club Pro

Aproveite o Cifra Club com benefícios exclusivos e sem anúncios
7 dias grátis
Cifra Club Pro
Aproveite o Cifra Club com benefícios exclusivos e sem anúncios
7 dias grátis
OK