Cifra Club

Aprenda

Até o Fim

Engenheiros do Hawaii

Cifra: Versão 7 (violão e guitarra)
tom: G
[Intro] G  Em7  Bm  D 
        G  Em7  Bm  D 

E|----------------------------|
B|-0-/3--0-/3~--0-/3--0-------| 
G|----------------------2-2~~-|
D|----------------------------|
A|----------------------------|
E|----------------------------|

G             Em7          Bm   D
 Não vim até aqui pra desistir agora
G          Em7               Bm   D
 Entendo você se você quiser ir embora
G                 Em
 Não vai ser a primeira vez
     A          C
 Nas últimas 24 Horas

G                    Em7          Bm   D
 Mas eu não vim até aqui pra desistir agora
C          D
 Minhas raízes estão no ar
C           D
 Minha casa é qualquer lugar
C               D               Em  Em9  Em
 Se depender de mim eu vou até o fim
C           D            C    D
 Voando sem instrumentos ao sabor do vento
C               D              Em  Em9  Em  C D
 Se depender de mim eu vou até o fim

E|---------------|
B|-0-1-0---------|
G|-------2-0--2~-|
D|---------------|
A|---------------|
E|---------------|

Intro: G  Em7  Bm  D (2x)

E|----------------------------|
B|-0-/3--0-/3~--0-/3--0-------| (2x)
G|----------------------2-2~~-|
D|----------------------------|
A|----------------------------|
E|----------------------------|

G                Em7          Bm   D
 Eu Não vim até aqui pra desistir agora
G          Em7               Bm   D
 Entendo você se você quiser ir embora
G                 Em
 Não vai ser a primeira vez
     A          C
 Nas últimas 24 Horas

G              Em7                  Bm    D
 A ilha não se curva noite a dentro vida afora
C             D          C           D
 Toda vida, o dia inteiro não seria exagero
C               D              Em  Em9  Em
 Se depender de mim eu vou até o fim
C            D             C
 Cada célula todo fio de cabelo
                 D
 Falando assim parece exagero
C                   D              Em  Em9  Em  C D
 Mas se depender de mim eu vou até o fim

E|---------------|
B|-0-1-0---------|
G|-------2-0--2~-|
D|---------------|
A|---------------|
E|---------------|

[Solo] G  Em7  Bm7  D  G  Em  Bm7  D
      C  D  C  D  C  D  Em7  Em7  C  D

E|----------------------------|  |---------|
B|-0-/3--0-/3~--0-/3--0-------|2x|---------|
G|----------------------2-2~~-|  |-2-2-0-0-|
D|----------------------------|  |---------|
A|----------------------------|  |---------|
E|----------------------------|  |---------|

E|-------------|   |-------------|-----------|
B|-------------|2x |-----------0-|-1p0-1p0-3-| 3x
G|-2/4-2-0-2-0-|   |-2/4-2-0-2---|-----------|
D|-------------|   |-------------|-----------|
A|-------------|   |-------------|-----------|
E|-------------|   |-------------|-----------|

G                Em7          Bm   D
 Eu Não vim até aqui pra desistir agora
G             Em7          Bm   D
 Não vim até aqui pra desistir agora

[Final] G Em7 Bm D
Composição de Humberto Gessinger
Colaboração e revisão:
  • Sávio Queiroz
  • Savio Queiroz
3.006 exibições
    • ½ Tom
    • A
    • Bb
    • B
    • C
    • Db
    • D
    • Eb
    • E
    • F
    • F#
    • G
    • Ab
  • Adicionar à lista

    0 comentários

    Ver todos os comentários
    00:00 / 00:00
    Outros vídeos desta música
    Repetir Qualidade Automático
    Outros vídeos desta música
    00:00 / 00:00
    Automático

    Cifra Club Pro

    Aproveite o Cifra Club com benefícios exclusivos e sem anúncios
    Cifra Club Pro
    Aproveite o Cifra Club com benefícios exclusivos e sem anúncios
    OK