Notificações Amigos pendentes

      Engenheiros do Hawaii

      O Exército de um Homem só I

      9.155 exibições
      O Baixo começa aos 0:12 assim:
      
      G|---------|---------|---------|---------|
      D|---------|---------|---------|---------|
      A|---------|---------|---------|---------| x1
      E|----0----|----5----|----7----|----0----|
      
      Não importa se só tocam...
      G|-----------------------------------------------------------|      
      D|-----------------------------------------------------------|
      A|-------------------------------------6---------------------| 
      E|--0--------5---------7-------0--------------7--------------|
      Em paredes de baanheiro...
      G|-----------------------------------------------------------| 
      D|-----------------------------------------------------------|
      A|---------------------------4-----6-------------------------|
      E|--0--------5---------7-----------------7-------------------|
      
      G|---------|---------|---------|---------|
      D|---------|---------|---------|---------|
      A|---------|---------|---------|---------|
      E|----0----|----5----|----7----|----0----|
      
      Pré-refrão:
      
      Nos interessa o que não foi impresso:
      G|------------------------------------------------------------|      
      D|------------------------------------------------------------|
      A|--------------------------------4----6----------------------| 
      E|--0--------5---------7------------------------7----0--------|
      
      Refrão:
      
      Somos um exército...
      G|-------------------------------------------------------------------|
      D|------------------9------------------------------------------------|
      A|---------9----7-----9-99976----------------4---4-5-7---------------|
      E|----7-7----7--------------------7-5--5----------------4-5-4-5-6-7--| x3
      sem bandeiras, sem fronteiras..
      G|--------------|
      D|--------------|
      A|--------------|
      E|--4-5-4-5-6-7-|
      
      G|---------|---------|---------|---------|
      D|---------|---------|---------|---------|
      A|---------|---------|---------|---------| x1
      E|----0----|----5----|----7----|----0----|
      
      Não importa se só tocam...
      G|-----------------------------------------------------------|      
      D|-----------------------------------------------------------|
      A|-------------------------------5--6------------------------| 
      E|--0--------5---------7-----0-----------------7-------------|
      
      G|-----------------------------------------------------------| 
      D|-----------------------------------------------------------|
      A|---------------------------4----6--------------------------|
      E|--0--------5---------7--------------0----------------------|
      
      Somos um exército...
      G|-------------------------------------------------------------------|
      D|------------------9------------------------------------------------|
      A|---------9----7-----9-99976----------------4---4-5-7---------------|
      E|----7-7----7--------------------7-5--5----------------4-5-4-5-6-7--| x3
      
      sem bandeiras, sem fronteiras..
      G|--------------|
      D|--------------|
      A|--------------|
      E|--4-5-4-5-6-7-|
      
      Não interessa o que o bom senso diz...
      G|---------|---------|---------|---------| 
      D|---------|---------|---------|---------|   x2
      A|---------|---------|---------|---------|
      E|----0----|----5----|----7----|----0----|
      
      Solo:
      
      G|---------------13----------13---13-16-13----13-16-13-------------------|
      D|-------14---14---14--14-14-----14--------14----------14----------14-14-|
      A|--14-14---14--------------------------------------------14-14-14-------|
      E|-----------------------------------------------------------------------|
      Somos um exército...
      G|-------------------------------------------------------------------|
      D|------------------9------------------------------------------------|
      A|---------9----7-----9-99976----------------4---4-5-7---------------|
      E|----7-7----7--------------------7-5--5----------------4-5-4-5-6-7--| x3
      Todos sabem que tanto faz:
      G|--------------|
      D|--------------|
      A|--------------|
      E|--4-5-4-5-6-7-|
      G|---------|---------|---------|---------|
      D|---------|---------|---------|---------|
      A|---------|---------|---------|---------|
      E|----0----|----5----|----7----|----0----|
      
      
      Final:
      G|---------------------------------------------------------------------------------------------|
      D|------------------------------------------------------------------------------14-14-14-14\---|
      A|-------------------------------------------------------------7-7-7-7-7-7-7/14----------------|
      E|-0000000000/14-16-14\55555555555/14-16-14\777777777/14-16-14---------------------------------|
      
      G|----------------------------------------------------------------------------------------------| 
      D|------------------------------------------------------------------------------6-7-8-9---------|
      A|---7-7-7-7-7-7-7/9-11-9\----------------------------------------------------7-----------------|
      E|-------------------------5-5-5-5-5-5-5/14-16-14\-7-7-7-7-7-7-7-7-7/14-16-14-------------------|
        Composição: Augusto Licks / Humberto GessingerColaboração e revisão:
        • Gilailson
        • kuka_g3
        • ravitd

        Comentários 0

        140 .
        140 cancelar

        conseguiu tocar?

        covers

        Grave um vídeo tocando O Exército de um Homem só I e mande pra gente!

        Ex.: http://www.youtube.com/watch?v=0IvSvIwGdwk
        ver covers de outras músicas »
        0:00 / 0:00

        Capítulos

          2 versões de violão dificuldade exibições contribuição e correção
          2 versões de guitarra dificuldade exibições contribuição e correção
          2 versões de cavaco dificuldade exibições contribuição e correção
          2 versões de teclado dificuldade exibições contribuição e correção
          1 versão de baixo exibições contribuição e correção
          1 versão de Guitar Proformatodownloadscontribuição
          play/pausefechar subir/descer velocidade
          6ª corda E5ª corda A4ª corda D3ª corda G2ª corda B1ª corda E
            acordes
            publicidade
            fechar
            ok