Cifra Club

Naquela Esquina

Esteban Tavares

Cifra: Principal (violão e guitarra)
tom: G
  Am7              C9
E|-3-------|      E|-3-------| 
B|-1-------|      B|-3-------|
G|-0-------|      G|-0-------|
D|-2-------|      D|-2-------|
A|-0-------|      A|-3-------|
E|-x-------|      E|-x-------|


Riff de introdução e tocado no decorrer da música:

    G                       C                      G                  C
E|-------------------------------------------------------------------------------------------------------------|
B|-------------------------------------------------------------------------------------------------------------|
G|---2h4-2-0--------------0-----2h4-2-0----------0-----2h4-2-0----------0----------2h4-2-0-2-----|
D|-----------------4-2-4----------------------4-2-4---------------------4-2-4-----------------------------|
A|-------------------------------3------------------------------------------------------3----------------------|
E|-3--------------------------------------------------------3--------------------------------------------------|

Variação do Riff tocado no fim da música:

    G                 C
E|------------------------------------------------------|
B|------------------------------------------------------|
G|---2h4-2-0-2-0-2-4-----2h4-2-0-2-0-2-4-----|
D|------------------------------------------------------|
A|--------------------------3---------------------------|
E|-3----------------------------------------------------|


G
   Eu acho que não deu muito certo
C
   O certo era dar tudo errado
G                                                               C
   E agora a gente fica fugindo um do outro

   Pro mesmo lado

G
   Eu sei você vai ter que ir embora
C
   E isso é tudo que sempre quis
G
   Se esse sonho é viver lá fora
C
   Só quero que seja feliz

Am7                                                              D7
   Eu acho que a gente sempre esteve aqui
Am7                                                              D7
   E que você vai me deixar no fim do mês
Am7                                                D7
   Parece que agora fica pra depois
                             Am7
   Mas se eu pudesse voltar
                C                         D7
   Eu viraria naquela esquina mais uma vez


Riff


G                                                     C
   Eu sei você não para de pensar
                  Em
   Se tudo isso vale a pena
                        D                                  C9
   Ou vale a pena me pedir pra esperar
G                                                           C
   Você tem toda uma vida pra sonhar
                            Em
   Eu tenho um quarto bagunçado
                D                                       C9
   Um violão e umas contas pra pagar

Am7                                                                         D7
   Eu desenhei um mapa que levou a nossa vida pro mesmo lugar
Am7                                               D7
   Por que demorou tanto calcular?
      Am7
   E hoje aqui de longe
                                                                D7
   Eu só espero que você nunca se esqueça do que a gente fez
                          Am7
   Pois se eu pudesse voltar
               C                           D                            G
   Eu viraria naquela esquina mais uma vez
C                    G
   Mais uma vez

C

Am7                                                               D7
   Eu acho que a gente sempre esteve aqui
Am7                                                             D7
   E que você vai me deixar no fim do mês
Am7                                                D7
   Parece que agora fica pra depois
                            Am7
   Mas se eu pudesse voltar
                C                          D                        G
   Eu viraria naquela esquina mais uma vez
                            Am7
   Mas se eu pudesse voltar
               D4(7)                  D7                        G
   Eu viraria naquela esquina mais uma vez
                            Am7
   Mas se eu pudesse voltar
              D7                                                    G
   Eu viraria naquela esquina mais uma vez
00:00 / 00:00
Outros vídeos desta música
Repetir
Outros vídeos desta música
Compositor não encontrado.
Colaboração e revisão:
  • Rafael Costa
10.095 exibições
    • ½ Tom
    • A
    • Bb
    • B
    • C
    • Db
    • D
    • Eb
    • E
    • F
    • F#
    • G
    • Ab
  • Adicionar à lista

    0 comentários

    Ver todos os comentários

    Conseguiu tocar?

    9 Tocaram 0 Ainda não

    Grave um vídeo tocando Naquela Esquina e nos envie!

    Entre para oCifra Club PRO

    Tenha acesso a benefícios exclusivos no App e no Site

    • Chega de anúncios

    • Prioridade de compra em lançamentos

    • Mais recursos no app do Afinador

    • Atendimento Prioritário

    • Descontos nos produtos Cifra Club

    • Ajude a produzir mais conteúdo

    00:00 / 00:00

    Cifra Club Pro

    Aproveite o Cifra Club com benefícios exclusivos e sem anúncios
    Cifra Club Pro
    Aproveite o Cifra Club com benefícios exclusivos e sem anúncios
    OK