Cifra Club

Aprenda

New Beginnings

Finch

Cifra: Versão 3 (violão e guitarra)
tom: A
Album: What It Is To Burn

Tabbed by: Gary the Hann
Email: C*

Tuning: Drop C#


Intro – Guitar I
D#|------------------------------------------------------------------------|
A#|------------------------------------------------------------------------|
F#|------------------------------------------------------------------------|
C#|------10----------10----------10----------10----------10----------10----|
G#|----8-----------8-----------8-----------8-----------8-----------8-------|
C#|--8------0----8------0----8------0----8------0----8------0----8------0--|

Chorus – Guitar I
D#|------------------------|
A#|------------------------|
F#|------------1099999999--|
C#|------10----x-xxxxxxxx--|
G#|----8-------8-77777777--|
C#|--8------0--------------|

Chorus – Guitar II
D#|---------------------------|
A#|---------------------------|
F#|---------------------------|
C#|--8888-1010101010101010-0--|
G#|--8888-8-8-8-8-8-8-8-8--0--|
C#|--8888-8-8-8-8-8-8-8-8--0--|

Verse – Guitar I & Guitar II
D#|--------------------------------------------------------------------|
A#|--------------------------------------------------------------------|
F#|--------------------------------------------------------------------|
C#|--3333xxxx3333xxxx3333xxxx3333xxxx0000xxxx0000xxxx0000xxxx0000xxxx--|
G#|--3333xxxx3333xxxx3333xxxx3333xxxx0000xxxx0000xxxx0000xxxx0000xxxx--|
C#|--3333xxxx3333xxxx3333xxxx3333xxxx0000xxxx0000xxxx0000xxxx0000xxxx--|
    ................................................................
 
Verse – Pt II – Guitar I & II
D#|--------------------------------------------------------------------|
A#|--------------------------------------------------------------------|
F#|--------------------------------------------------------------------|
C#|--3333xxxx3333xxxx3333xxxx3333xxxx0000xxxx0000xxxx0000000000000000--|
G#|--3333xxxx3333xxxx3333xxxx3333xxxx0000xxxx0000xxxx0000000000000000--|
C#|--3333xxxx3333xxxx3333xxxx3333xxxx0000xxxx0000xxxx0000000000000000--|
    ................................................

Bridge – Guitar I
D#|-----------------------------------------------------|
A#|-----------------------------------------------------|
F#|-----------------------------------------------------|
C#|--5-5-5-5-5-5-8-8-8-8-8-8-3333333333333333333333333--|
G#|--5-5-5-5-5-5-8-8-8-8-8-8-3333333333333333333333333--|
C#|--5-5-5-5-5-5-8-8-8-8-8-8-3333333333333333333333333--|

Bridge – Guitar II
D#|--------------------------------------------------------|
A#|--------------------------------------------------------|
F#|--7-7-7-7-7-7-7-101010101010-5555555555555555555555555--|
C#|--x-x-x-x-x-x-x-x-x-x-x-x-x--xxxxxxxxxxxxxxxxxxxxxxxxx--|
G#|--5-5-5-5-5-5-5-8-8-8-8-8-8--3333333333333333333333333--|
C#|--------------------------------------------------------|

Bridge Pt II – Guitar I
D#|----------------------------------------------------|
A#|----------------------------------------------------|
F#|----------------------------------------------------|
C#|--333333333333333333333333333333333333333333333333--|
G#|--333333333333333333333333333333333333333333333333--|
C#|--333333333333333333333333333333333333333333333333--|

Bridge Pt II – Guitar II
D#|-------------------------------------------|
A#|-------------------------------------------|
F#|--5------10101010101010101010101010101010--|
C#|--x-x48--x-x-x-x-x-x-x-x-x-x-x-x-x-x-x-x---|
G#|--3------8-8-8-8-8-8-8-8-8-8-8-8-8-8-8-8---|
C#|-------------------------------------------|

Clean Bridge - Guitar II
D#|-----------------------------------------------|
A#|-----------------------------------------------|
F#|-----------------------------------------------|
C#|--8-----------8-----------8-----------8--------|
G#|--8-----0-----8-----0-----8-----0-----8-----0--|
C#|--8-----0-----8-----0-----8-----0-----8-----0--|

Clean Bridge - Guitar I
D#|-----------------------------------------------|
A#|-----------------------------------------------|
F#|-----------------------------------1099999999--|
C#|-----------------------------------x-xxxxxxxx--|
G#|-----------------------------------8-77777777--|
C#|-----------------------------------------------|
Played at the end of last bar of 'Clean Bridge’

End – Guitar I
D#|------------------------------------------------------------------------|
A#|------------------------------------------------------------------------|
F#|------------------------------------------------------------------------|
C#|------10----------10----------10----------10----------10----------10----|
G#|----8-----------8-----------8-----------8-----------8-----------8-------|
C#|--8------0----8------0----8------0----8------0----8------0----8------0--|
Plays until fades out

End - Guitar II
D#|-----------------|
A#|-----------------|
F#|-----------------|
C#|--5-5-5-5-5-5-0--|
G#|--5-5-5-5-5-5-0--|
C#|--5-5-5-5-5-5-0--|


Song Formation

Intro - x6
Chorus - Guitar I & II - x4
Verse – Guitar I & Guitar II – x3
Chorus - Guitar I & II - x4
Verse – Guitar I & Guitar II – x2
Chorus - Guitar I & II – x8
Bridge – Guitar I & II – x4
Bridge Pt II – Guitar I & II – x1
Clean Bridge - Guitar II & II x 1
Chorus - Guitar I & II – x8
End – Guitar I & II – x1
Composição de Finch / Nate Barcalow
75 exibições
    • ½ Tom
    • A
    • Bb
    • B
    • C
    • Db
    • D
    • Eb
    • E
    • F
    • F#
    • G
    • Ab
  • Adicionar à lista

    0 comentários

    Ver todos os comentários
    00:00 / 00:00
    outros vídeos desta música
    repetir qualidade Automático
    Outros vídeos desta música
    00:00 / 00:00
    Automático

    Cifra Club Pro

    Aproveite o Cifra Club com benefícios exclusivos e sem anúncios
    Cifra Club Pro
    Aproveite o Cifra Club com benefícios exclusivos e sem anúncios
    OK