Cifra Club

Aprenda

Post script

Finch

Tab de baixo: Versão 2
Album: What It Is To Burn

bass tab

by : doky 2007
*

5-stringed bass
G D A E B

   INTRO
G-|-----------------------------------------------------------------|
D-|-----------------------------------------------------------------|
A-|---------------------------------1-11111-1-11111-1-11111---------|
E-|-2-22222-2-22222-----------------------------------------4-44444-|
B-|-----------------2-22222-2-22222---------------------------------|
                                                                              

   VERSO
G-|-------------------------------|---|--------|
D-|-------------------------------|---|--------|
A-|-----------------1---1---------|---|--------|
E-|-2---2-------------------4---4-|---|-4/16\0-|
B-|---------2---2-----------------|---|--------|
                                    +                                          

   PRE-CORO
G-|----------------*------------------------|---|-------|
D-|----------------*------------------------|---|-------|
A-|-1---------1----*------44-------44-------|---|-------|
E-|----------------*22-11----22-11----22-11-|---|-------|
B-|------2---------*------------------------|---|-2-----|
                                              +                                

   MIDDLE
G-|-----------------------------|---|--------|
D-|-----------------------------|---|--------|
A-|-----------------------------|---|--------|
E-|---------------------111-222-|---|--------|
B-|-2----2----2----2------------|---|-2------|
                                  +                                            

Les quiero congratular y salutar gravemente Al Joven Gomez o jhon creo que era, a La Isa, La Adri
y Al Tortuga de QB porque me recuerdo que fundaron un grupo exclusivamente de trotamundos.
la ultima vez que viajaron fue a Egiptos o a Timbuctu pero solo se llevaron jarra...
yaaaa bien tara, noo mentira, aaaaah El Castro mas estaba.

doky2007
Composição de Finch / Nate Barcalow
12 exibições

0 comentários

Ver todos os comentários
00:00 / 00:00
outros vídeos desta música
repetir qualidade Automático
Outros vídeos desta música
00:00 / 00:00
Automático

Cifra Club Pro

Aproveite o Cifra Club com benefícios exclusivos e sem anúncios
Cifra Club Pro
Aproveite o Cifra Club com benefícios exclusivos e sem anúncios
OK