Cifra Club

Aprenda

Without You Here

Finch

Tab de baixo: Versão 2
Album: What It Is To Burn

bass tab

by : doky 2007
*

5-stringed bass
G D A E B

   INTRO/VERSO
G-|--------------|--------------|-------------|
D-|--------------|---------10---|---------5---|
A-|---------6----|--------------|-------------|
E-|--------------|-8-88-88----8-|-3-33-33---3-|
B-|-4-44-44---44-|--------------|-------------|
                                                                              

   PRE-CORO
G-|------------|
D-|------------|
A-|------------|
E-|------------|
B-|-4444444444-|
                                                                              

   CORO
G-|----------------------------|
D-|----------------------------|
A-|----------------------------|
E-|-3-333--------6-6666-1-1111-|
B-|-------4-4444---------------|
                                                                              

   MIDDLE
G-|-----------------------------|
D-|-----------------------------|
A-|-----------------------------|
E-|-666666--------333333--------|
B-|--------444444--------444444-|
                                                                              
Le congratulo Al Joven Sergio Gotrett por hacer tanto preste en la esquina de la Tiquina
y otros lugares medios estes ps, ademas tambien lo agrego al otro Joven, El Samir Pacheco
que es este y que un dia me ha prestado los cassettes que grabo de la radio poniendole 
enfasis a los organitos de una cumbia bien sabrosa cheeee.

doky2007
Composição de Finch / Nate Barcalow
38 exibições

0 comentários

Ver todos os comentários
00:00 / 00:00
outros vídeos desta música
repetir qualidade Automático
Outros vídeos desta música
00:00 / 00:00
Automático

Cifra Club Pro

Aproveite o Cifra Club com benefícios exclusivos e sem anúncios
Cifra Club Pro
Aproveite o Cifra Club com benefícios exclusivos e sem anúncios
OK