Cifra Club

Aprenda

Without You Here

Finch

Cifra: Versão 3 (violão e guitarra)
tom: B
Tabbed by:Miser123 "Miguel"
Email:*

Tuning:Standard

Figure out the strumming yourself, It's pretty simple.



Intro
e|---------------------------------------------------------------------------|
B|---------------------------------------------------------------------------|
G|--8---------8------------8-----------------9-------------------------------|
D|--x---------x------------x-----------------x-------------------------------| 
A|--6---------4------------6-----------------7-------------------------------|
E|-------------------------4-------------------------------------------------|

Verse
e|---------------------------------------------------------------------------|
B|---------------------------------------------------------------------------|
G|--8---------8------------8-----------------9-------------------------------|
D|--x---------x------------x-----------------x-------------------------------|
A|--6---------4------------6-----------------7-------------------------------|
E|-------------------------4-------------------------------------------------|

Pre-chorus
e|---------------------------------------------------------------------------|
B|---------------------------------------------------------------------------|
G|--9---------11--------13--------15-----------------------------------------|
D|--x---------x---------x---------x------------------------------------------|
A|--7---------9---------11--------13-----------------------------------------|
E|---------------------------------------------------------------------------|


Chorus   
(Listen to the song for chorus Duration)
e|---------------------------------------------------------------------------|
B|---------------------------------------------------------------------------|
G|----4---------8----------3-------------------------------------------------|
D|----4---------8----------3-------------------------------------------------|
A|----2---------6----------1-------------------------------------------------|
E|---------------------------------------------------------------------------|

Verse
e|---------------------------------------------------------------------------|
B|---------------------------------------------------------------------------|
G|--8---------8------------8-----------------9-------------------------------|
D|--x---------x------------x-----------------x-------------------------------|
A|--6---------4------------6-----------------7-------------------------------|
E|-------------------------4-------------------------------------------------|

Pre-chorus
e|---------------------------------------------------------------------------|
B|---------------------------------------------------------------------------|
G|--9---------11--------13--------15-----------------------------------------|
D|--x---------x---------x---------x------------------------------------------|
A|--7---------9---------11--------13-----------------------------------------|
E|---------------------------------------------------------------------------|

Chorus   
(Listen to the song for chorus Duration)
e|---------------------------------------------------------------------------|
B|---------------------------------------------------------------------------|
G|----4---------8----------3-------------------------------------------------|
D|----4---------8----------3-------------------------------------------------|
A|----2---------6----------1-------------------------------------------------|
E|---------------------------------------------------------------------------|

Bridge
e|------|--------------------------------------------------------------------|
B|------|--------------------------------------------------------------------|
G|--9---|-----4-------1----6-----1-------------------------------------------|
D|--x---|-----4-------2----6-----2-------------------------------------------|
A|--7---|-----2-------2----4-----2-------------------------------------------|
E|------|--------------------------------------------------------------------|


| /  slide up
| \  slide down
| h  hammer-on
| p  pull-off
| ~  vibrato
| +  harmonic
| x  Mute note
===============================================================================
Composição de Finch / Nate Barcalow
194 exibições
    • ½ Tom
    • A
    • Bb
    • B
    • C
    • Db
    • D
    • Eb
    • E
    • F
    • F#
    • G
    • Ab
  • Adicionar à lista

    0 comentários

    Ver todos os comentários
    00:00 / 00:00
    outros vídeos desta música
    repetir qualidade Automático
    Outros vídeos desta música
    00:00 / 00:00
    Automático

    Cifra Club Pro

    Aproveite o Cifra Club com benefícios exclusivos e sem anúncios
    Cifra Club Pro
    Aproveite o Cifra Club com benefícios exclusivos e sem anúncios
    OK