Cifra Club

Incendeia Minha Alma

Flavinho

Cifra: Principal
exibições 203.119
Tom: D
(intro) D A G A   (2x)

E|-3-3-1-0--------------------3-1-0-----|
B|---------3-1-1h3-3/5--------------3---|
G|--------------------------------------|
D|--------------------------------------|
A|--------------------------------------|
E|--------------------------------------|

D9         A/C#        Bm7         A
  Espírito Santo vinde,   falar em mim,
D9         A/C#        Bm7         A
  Espírito Santo vinde,   falar em mim,
D9         A/C#       Bm7        A
  Espírito Santo vinde   orar em mim,
D9         A/C#       Bm7        A
  Espírito Santo vinde   orar em mim,
D/F#    G               Bm7
Vinde Curar, vinde libertar,
           Em      Bm7  A
Nossos corações de toda opressão,
   D/F#       G               Bm7
Vinde transformar, vem incendiar,
             E     E/G#  A    (A G/B A9/C#)
Trás fogo do céu nesse lugar!

     D9              A/C#     Bm7             A
Incendeia minha alma,    Incendeia minha alma,
     G          D/F#     A4
Incendeia minha alma, senhor!
     D9              A/C#     Bm7             A
Incendeia minha alma,    Incendeia minha alma,
     G          D/F#     A4
Incendeia minha alma, senhor!

(solo base)  Bm A G   Bm A G A

E|-----8-7-8-8/10-8-----|
B|-8-8--------------8---|
G|----------------------|
D|----------------------|
A|----------------------|
E|----------------------|

E|-----8-7-8-8/10-8-----|
B|-8-8--------------8-9-|
G|----------------------|
D|----------------------|
A|----------------------|
E|----------------------|

E|-8-8-8-7-7-5-5-3----5-3--|
B|------------------5------|
G|-------------------------|
D|-------------------------|
A|-------------------------|
E|-------------------------|

D9         A/C#        Bm7         A
  Espírito Santo vinde,   falar em mim,
D9         A/C#        Bm7         A
  Espírito Santo vinde,   falar em mim,
D9         A/C#       Bm7        A
  Espírito Santo vinde   orar em mim,
D9         A/C#       Bm7        A
  Espírito Santo vinde   orar em mim,
D/F#    G               Bm7 (solinho do violão)
Vinde Curar, vinde libertar,
           Em      Bm7  A
Nossos corações de toda opressão,
   D/F#       G               Bm7
Vinde transformar, vem incendiar,
             E     E/G#  A
Trás fogo do céu nesse lugar!

     E9              B/D#     C#m7            B
Incendeia minha alma,    Incendeia minha alma,
     A            E/G#  B4
Incendeia minha alma, senhor!
     E9              B/D#     C#m7            B
Incendeia minha alma,    Incendeia minha alma,
     A            E/G#  B4
Incendeia minha alma, senhor!

( E  A )
Acordes para:

    0 comentários

      mostrar mais comentários

      Conseguiu tocar?

      12tocaram0ainda não

      Grave um vídeo tocando Incendeia Minha Alma e mande pra gente!

      00:00 / 00:00
      outros vídeos desta música
      repetirqualidadeautomática
      Outro vídeos desta música
        00:00 / 00:00
        automática
        OK