Cifra Club

Aprenda

Vamos Fugir

Gilberto Gil

Tab de baixo: Principal
Intro
G|--------------------------11---------------11----------
D|---------7-----------9------11-------7-9-11--11-7------
A|-5-5---5---5-7-7---7---7------12-9--9------------9-----
E|-----5-----------7-------------------------------------

Riff 1
   A                 D                 E7               D           E7      F#m
G|-2------------------------------------------------------------------------11---------------11------
D|---2----------2-2------------------------9--------9-------------------------11-------7-9-11--11-7--
A|-----4-0--0-0------5-5---5--5-5---5--7-7---7--7-7---7-5-5-5-5-5-5-7-7-7--7----12-9--9------------9-
E|-----------------------5--------5------------------------------------------------------------------

Riff 2
   A                 E7                F#m              D           E7          F#m
G|-----------------------------------------------------------------------------11---------------11------
D|--------------------------------------------------------------7-----------9----11-------7-9-11--11-7--
A|-0-0---0--0-0---0--7-7---7--7-7---7------4--------4---5-5---5---5-7-7---7---7----12-9--9------------9-
E|-----0--------0--------7--------7----2-2---2--2-2---2-----5-----------7-------------------------------

Refrão
   A        E7       D                                
G|-------------------------------------
D|-7-7---7-----------------------------
A|-----7----7-7---7--5-5---5---5---5--- 3X
E|--------------7--------5---5---5---5-

Riff 3
   E7                D           E7                D
G|-------------------------------------------------------------------
D|-------------------------------------------------------------------
A|-7--7-----7----7-9-5-5-----5---7--7-----7----7-9-5-5-----5---------
E|------7-7----7---------5-5----------7-7----7---------5-5-----------

Riff2

Intro  4X

Riff2

REFRÃO 4X

Riff3  2X

Riff2

André L. Haag
Banda Habtant`s - Palhoça - SC
al.haag@ig.com.br

_______________________________________________________
Contribuição: André Luiz Haag(al.haag@ig.com.br)
Composição de Gilberto Gil / Liminha
17.183 exibições

0 comentários

Mostrar mais comentários

Conseguiu tocar?

0 Tocaram 0 Ainda não

Grave um vídeo tocando Vamos Fugir e mande pra gente!

00:00 / 00:00
outros vídeos desta música
repetir qualidade Automático
Outros vídeos desta música
00:00 / 00:00
Automático

Cifra Club Pro

Aproveite o Cifra Club com benefícios exclusivos e sem anúncios
7 dias grátis
Cifra Club Pro
Aproveite o Cifra Club com benefícios exclusivos e sem anúncios
7 dias grátis
OK