Cifra Club

Anything Goes

Guns N' Roses

Cifra: Versão 2
exibições 6.716
Tom: G
Guitar - Slash

D#||----------|-------9-------------|--------------------|--------------------|
A#||----------|----------8b---------|--------------------|--------------------|
F#||----------|--9------------------|--------------------|--14----------------|
C#||----------|---------------------|----------------x-x-|--14----------------|
G#||----------|---------------------|----------------x-x-|--12----------------|
D#||----------|---------------------|--------------------|--------------------|


                                                              
--------------------|-------9-------------|------------------|
--------------------|----------8b---------|------------------|
--14/---------------|--9------------------|------------------|
--14/---------------|---------------------|------------------|
--12/---------------|---------------------|------------------|
--------------------|---------------------|------------------|


                                                                  
--------------------|--------------------|-----------------------|
--------------------|--------------------|-----------------------|
--14----------------|--14/---------------|--------9-----8--------|
--14----------------|--14/---------------|--------7-----6--------|
--12----------------|--12/---------------|--0--0-----0-----------|
--------------------|--------------------|-----------------------|


                                                              
------------------|-----------------------|------------------|
------------------|-----------------------|------------------|
------------------|--------9-----7--------|------------------|
------------------|--------7-----5--------|------------------|
------------------|--0--0-----0-----------|------------------|
------------------|-----------------------|------------------|


                                                                   
-----------------------|------------------|-----------------------|
-----------------------|------------------|-----------------------|
--------9-----6--------|------------------|--------9-----5--------|
--------7-----4--------|------------------|--------7-----3--------|
--0--0-----0-----------|------------------|--0--0-----0-----------|
-----------------------|------------------|-----------------------|


                                                                              
--------------------|----------------------------|---------------------------|
--------------------|----------------------------|---------------------------|
--------------------|----------------------------|---------------------------|
--------------------|--------7----6~------6----5~|--------5----4~------3--2--|
--------------------|--0--0-----0-----0-0----0---|----0-0----0-----0-0-------|
------------15/-----|----------------------------|---------------------------|


                                                           
------------------------------|---------------------------|
------------------------------|---------------------------|
------------------------------|---------------------------|
----------7----6~------6----5~|--------5----4~------3--2--|
--0-0-3-4----0-----0-0----0---|----0-0----0-----0-0-------|
------------------------------|---------------------------|


                                                           
------------------------------|---------------------------|
------------------------------|---------------------------|
------------------------------|---------------------------|
----------7----6~------6----5~|--------5----4~------3--2--|
--0-0-3-4----0-----0-0----0---|----0-0----0-----0-0-------|
------------------------------|---------------------------|


                                                         
------------------------------|-------------------------|
------------------------------|-------------------------|
------------------------------|----------12-------------|
----------7----6~------6----5~|--7---5b-----------------|
--0-0-3-4----0-----0-0----0---|----------7~----3--2-----|
------------------------------|----------------------3--|


                                                                            
-------------------------|------------------------|------------------------|
-------------------------|------------------------|------------------------|
--------------4/-6-------|-------------7/-6-------|-------------4/-6-------|
--------------4/-6-------|-------------7/-6-------|-------------4/-6----2--|
--------------2/-4----2--|-------------5/-4----2--|-------------2/-4----2--|
--0--0--3--4----------0--|----0--3--4----------0--|----0--3--4----------0--|


                                                                           
-----------------------|-------------------------|------------------------|
-------------3---------|-------------------------|------------------------|
-------------2----2----|--------------4/-6-------|-------------7/-6-------|
-------------0----2----|--------------4/-6-------|-------------7/-6-------|
------------------0----|--------------2/-4----2--|-------------5/-4----2--|
----0--3--4------------|--0--0--3--4----------0--|----0--3--4----------0--|


                                                                     
------------------------|-----------------------|-------------------|
------------------------|-----------------------|-------------------|
-------------4/-6-------|-----------------------|-------------------|
-------------4/-6----2--|-------------3----4----|--5----------------|
-------------2/-4----2--|-------------3----4----|--5----------------|
----0--3--4----------0--|----0--3--4--1----2----|--3----------------|


                                                                     
-------------------|-----------------------|------------------------|
-------------------|-----------------------|------------------------|
--7----------------|--2--2----2----2----2--|----2-------------------|
--7----------------|--2--2----2----2----2--|----2-------------------|
--5----------------|--0--0----0----0----0--|----0----0--3b-0--3b-0--|
-------------------|-----------------------|------------------------|


                                                                 
-------------------|-------------------|------------------------|
-------------------|-------------------|------------------------|
-------------------|--7----------------|------------------------|
--5----------------|--7----------------|--5---------------------|
--5----------------|--5----------------|-------7-----5--7----5--|
--3----------------|-------------------|----------7-------------|


                                                                           
-----------------------|-------------------------|------------------------|
-----------------------|-------------------------|------------------------|
-----------------------|--------------4/-6-------|-------------7/-6-------|
-----------------------|--------------4/-6-------|-------------7/-6-------|
----4----2--4--2-------|--------------2/-4----2--|-------------5/-4----2--|
------------------3b---|--0--0--3--4----------0--|----0--3--4----------0--|


                                                                           
------------------------|-----------------------|-------------------------|
------------------------|-------------3---------|-------------------------|
-------------4/-6-------|-------------2----2----|--------------4/-6-------|
-------------4/-6----2--|-------------0----2----|--------------4/-6-------|
-------------2/-4----2--|------------------0----|--------------2/-4----2--|
----0--3--4----------0--|----0--3--4------------|--0--0--3--4----------0--|


                                                                          
------------------------|------------------------|-----------------------|
------------------------|------------------------|-----------------------|
-------------7/-6-------|-------------4/-6-------|-----------------------|
-------------7/-6-------|-------------4/-6----2--|-------------3----4----|
-------------5/-4----2--|-------------2/-4----2--|-------------3----4----|
----0--3--4----------0--|----0--3--4----------0--|----0--3--4--1----2----|


                                                                
-------------------|-------------------|-----------------------|
-------------------|-------------------|-----------------------|
-------------------|--7----------------|--2--2----2----2----2--|
--5----------------|--7----------------|--2--2----2----2----2--|
--5----------------|--5----------------|--0--0----0----0----0--|
--3----------------|-------------------|-----------------------|


                                                                 
------------------------|-------------------|-------------------|
------------------------|-------------------|-------------------|
----2-------------------|-------------------|--7----------------|
----2-------------------|--5----------------|--7----------------|
----0----0--3b-0--3b-0--|--5----------------|--5----------------|
------------------------|--3----------------|-------------------|


                                                                    
-----------------------|-----------------------|-------------------|
-----------------------|-----------------------|-------------------|
--2--2----2----2----2--|----2----2----2--2--2--|-------------------|
--2--2----2----2----2--|----2----2----2--2--2--|--5----------------|
--0--0----0----0----0--|----0----0----0--0--0--|--5----------------|
-----------------------|-----------------------|--3----------------|


                                                                        
-------------------|--------------------------|------------------------|
-------------------|--------------------------|------------------------|
--7----------------|--------------------------|----0-------------------|
--7----------------|--------------2--2--4--4b-|-------4r---2--2--------|
--5----------------|--0--0--3--4--------------|------------------3--4--|
-------------------|--------------------------|------------------------|


                                                               
-------------------|-------------------|----------------------|
-------------------|-------------------|----------------------|
-------------------|--7----------------|--------2--4----------|
--5----------------|--7----------------|-----4-----4----------|
--5----------------|--5----------------|--2--------2----------|
--3----------------|-------------------|----------------------|


                                                                    
---------------------|----------------------|----------------------|
---------------------|----------------------|----------------------|
--------4r-----------|--------4b-4----------|----------------------|
-----4--4r-----------|-----4--4b-4----------|----4----5----6----7/-|
--2------------------|--2-------------------|----2----3----4----5/-|
---------------------|----------------------|----------------------|


                                              
----------------------|----------------------|
----------------------|----------------------|
----------------------|----------------------|
--9---------------5b--|--7b---5--------------|
--7----------7--x-----|------------7~---7/---|
----------------------|----------------------|


                                                                        
----------------------------------|------------------------------------|
--13b---13r-------14--13b-12--14--|--13r-------12h14-----12--------19b-|
--14b---14r-12----14--14b-12--14--|--14r-12----12h14-----12------------|
---------------14-----------------|---------14-------14------14/-------|
----------------------------------|------------------------------------|
----------------------------------|------------------------------------|


                                                               
----16--17--18--19------------|-------19----------------------|
--------------------19r---17--|--19b-----19r-17--20r---20/-0--|
------------------------------|-------------------------------|
------------------------------|-------------------------------|
------------------------------|-------------------------------|
------------------------------|-------------------------------|


                                                                    
-------12-------------12------------|----12--------------13--------|
--15b-----15h12-15b------15h12---15b|--------15h12-16b---------17b-|
------------------------------------|------------------------------|
------------------------------------|------------------------------|
------------------------------------|------------------------------|
------------------------------------|------------------------------|


                                                      
------14~---------14--|--17-17-17r-------17--16--17--|
----------------------|------------------------------|
----------------------|------------------------------|
----------------------|------------------------------|
----------------------|------------------------------|
----------------------|------------------------------|


                                             
--14h17h14----14----------------------------|
-----------17----17r-15----17----15---------|
------------------------16----16------16-15-|
--------------------------------------------|
--------------------------------------------|
--------------------------------------------|


                                                                
-------------------------------------------|-------------------|
-------------------------------------------|-------------------|
--14----13---------------------------------|-------------------|
-----16----14r-12-14h12-14h12---------12b--|--9----------------|
------------------------------14-12-x------|-------------------|
-------------------------------------------|-------------------|


                                                                   
------7------------7---------|------------------------------------|
---------7-10b--------10h-7--|------------------------------------|
-----------------------------|--9r---7-----9h-7-------------------|
-----------------------------|----------9--------9--7-------------|
-----------------------------|-------------------------9--8-7-9-8-|
-----------------------------|------------------------------------|


                                                                           
-----------------------------------|------------------|-------------------|
-----------------------------------|------------------|-------------------|
-----------------------------------|------------------|-------------------|
-----------------------------------|------------------|-------------------|
--7--5--7--5-----5-----------------|------------------|-------------------|
--------------7-----7--5--5--6--7~-|------------------|--7/---------------|


                                                                 
------------------------|--------------------|------------------|
------------------------|--------------------|------------------|
---------5b---------5b--|--------5b----------|------------------|
------7-----------7-----|------7-------------|------------------|
------------------------|--------------------|------------------|
------------------------|--------------------|------------------|


                                                                     
------------------|--12--------12--------|--12----12----12----12----|
------------------|--14--------14--------|--14----14----14----14----|
------------------|----------------------|--------------------------|
------------------|----------------------|--------------------------|
------------------|----------------------|--------------------------|
------------------|----------------------|--------------------------|


                                                                
-------------------|-------------------|-----------------------|
-------------------|-------------------|-----------------------|
-------------------|--7----------------|--2--2----2----2----2--|
--5----------------|--7----------------|--2--2----2----2----2--|
--5----------------|--5----------------|--0--0----0----0----0--|
--3----------------|-------------------|-----------------------|


                                                                 
------------------------|-------------------|-------------------|
------------------------|-------------------|-------------------|
----2-------------------|-------------------|--7----------------|
----2-------------------|--5----------------|--7----------------|
----0----0--3b-0--3b-0--|--5----------------|--5----------------|
------------------------|--3----------------|-------------------|


                                                                   
-----------------------|----------------------|-------------------|
-----------------------|----------------------|-------------------|
--2--2----2----2----2--|----2----2----2----2--|-------------------|
--2--2----2----2----2--|----2----2----2----2--|--5----------------|
--0--0----0----0----0--|----0----0----0----0--|--5----------------|
-----------------------|----------------------|--3----------------|


                                                                        
-------------------|--------------------------|------------------------|
-------------------|--------------------------|------------------------|
--7----------------|--------------------------|----0-------------------|
--7----------------|--------------2--2--4--4b-|-------4r---2--2--------|
--5----------------|--0--0--3--4--------------|------------------3--4--|
-------------------|--------------------------|------------------------|


                                                             
-------------------|--------------------|-------------------|
-------------------|--------------------|-------------------|
-------------------|--7-----------------|--2----------------|
--5----------------|--7-----------------|--2----------------|
--5----------------|--5------------3b---|--0----------------|
--3----------------|--------------------|-------------------|


                                                              
--------------------|-------------------|--------------------|
--------------------|-------------------|--------------------|
--------------------|-------------------|--7-----------------|
--------------------|--5----------------|--7-----------------|
--------------------|--5----------------|--5-----------------|
--------14/---------|--3----------------|-------------3b-----|


                                                                    
---------------------------------|---------------------------------|
---------------------------------|---------------------------------|
---------------------------------|---------------------------------|
----------7----6~--------6-------|--5-------5----4~--------3----2--|
--0----0--------------0-------0--|-------0--------------0----------|
---------------------------------|---------------------------------|


                                                                    
---------------------------------|---------------------------------|
---------------------------------|---------------------------------|
---------------------------------|---------------------------------|
----------7----6~--------6-------|--5-------5----4~--------3----2--|
--0----0--------------0-------0--|-------0--------------0----------|
---------------------------------|---------------------------------|


                                                                    
---------------------------------|---------------------------------|
---------------------------------|---------------------------------|
---------------------------------|---------------------------------|
----------7----6~--------6-------|--5-------5----4~--------3----2--|
--0----0--------------0-------0--|-------0--------------0----------|
---------------------------------|---------------------------------|


                                                                    
---------------------------------|---------------------------------|
---------------------------------|---------------------------------|
---------------------------------|---------------------------------|
----------7----6~--------6-------|--5-------5----4~--------3----2--|
--0----0--------------0-------0--|-------0--------------0----------|
---------------------------------|---------------------------------|


                                                                    
---------------------------------|---------------------------------|
---------------------------------|---------------------------------|
---------------------------------|---------------------------------|
----------7----6~--------6-------|--5-------5----4~--------3----2--|
--0----0--------------0-------0--|-------0--------------0----------|
---------------------------------|---------------------------------|


                                                                    
---------------------------------|---------------------------------|
---------------------------------|---------------------------------|
---------------------------------|---------------------------------|
----------7----6~--------6-------|--5-------5----4~--------3----2--|
--0----0--------------0-------0--|-------0--------------0----------|
---------------------------------|---------------------------------|


                                                                    
---------------------------------|---------------------------------|
---------------------------------|---------------------------------|
---------------------------------|---------------------------------|
----------7----6~--------6-------|--5-------5----4~--------3----2--|
--0----0--------------0-------0--|-------0--------------0----------|
---------------------------------|---------------------------------|


                                                                    
---------------------------------|---------------------------------|
---------------------------------|---------------------------------|
---------------------------------|---------------------------------|
----------7----6~--------6-------|--5-------5----4~--------3----2--|
--0----0--------------0-------0--|-------0--------------0----------|
---------------------------------|---------------------------------|


                                                               
-------------------|--------10--------------------------------|
-------------------|--13~------13h10--------------------------|
-------------------|-----------------12r-10----12-10b10-------|
--5----------------|------------------------12----------12-10-|
--5----------------|------------------------------------------|
--3----------------|------------------------------------------|


                                                                        
------------------------------|-------------------|-------------------||
------------------------------|-------------------|-------------------||
------------------------------|-------------------|--2----------------||
------------------------------|-------------------|--2----------------||
--12--11--10--10r-8-----------|-------------------|--0----------------||
--------------------8b--------|--------------8/---|-------------------||



----------------------------------------------------------------------


Guitar - Izzy

D#||----------|------------------------|-----------------------|
A#||----------|--------------5---------|---------5b---5b-------|
F#||----------|--------------5---------|----5b---5b---5b-------|
C#||----------|--5--7-7-7--7-----------|-----------------------|
G#||----------|------------------------|-------------------7-7-|
D#||----------|------------------------|-----------------------|


                                                                        
---------------------------|------------------|------------------------|
---------------------------|------------------|------------------------|
---------------------------|------------------|--------------5---------|
--5--7-7-7--5-7--5-7--7----|------------------|--5--7-7-7--7-----------|
----------------------7----|------------------|------------------------|
---------------------------|------------------|------------------------|


                                                                              
------------------------|-----------------------------|----------------------|
-------8----------------|-----------------------------|----------------------|
--7b------7r---5--------|-----------------------------|----------------------|
------------------------|--5-7-7-7-7--5-7--5-7--------|----------------------|
--------------------7-7-|-----------------------5--7--|----------7/-3--3--2--|
------------------------|-----------------------------|----------------------|


                                                            
-----------------------------|-----------------------------|
-----------------------------|-----------------------------|
-----------------------5-----|-----------------------------|
--5-7-7-7-7--5-7--5-7-----7--|--5-7-7-7-7--5-7--5-7--------|
-----------------------------|-----------------------5--7--|
-----------------------------|-----------------------------|


                                                           
-----------------------------|----------------------------|
-----------------------------|----------------------------|
-----------------------5-----|-----------------------7~---|
--5-7-7-7-7--5-7--5-7-----7--|--5-7-7-7-7--5-7--5-7-------|
-----------------------------|----------------------------|
-----------------------------|----------------------------|


                                                            
-----------------------------|-----------------------------|
-----------------------------|-----------------------------|
-----------------------5-----|-----------------------------|
--5-7-7-7-7--5-7--5-7-----7--|--5-7-7-7-7--5-7--5-7--------|
-----------------------------|-----------------------5--7--|
-----------------------------|-----------------------------|


                                                     
-----------------------------|----------------------|
-----------------------------|----------------------|
-----------------------5-----|----------------------|
--5-7-7-7-7--5-7--5-7-----7--|----------7/----------|
-----------------------------|-------------x--x--x--|
-----------------------------|----------------------|


                                                            
-----------------------------|-----------------------------|
-----------------------------|-----------------------------|
-----------------------5-----|-----------------------------|
--5-7-7-7-7--5-7--5-7-----7--|--5-7-7-7-7--5-7--5-7--------|
-----------------------------|-----------------------5--7--|
-----------------------------|-----------------------------|


                                                           
-----------------------------|----------------------------|
-----------------------------|----------------------------|
-----------------------5-----|-----------------------7~---|
--5-7-7-7-7--5-7--5-7-----7--|--5-7-7-7-7--5-7--5-7-------|
-----------------------------|----------------------------|
-----------------------------|----------------------------|


                                                            
-----------------------------|-----------------------------|
-----------------------------|-----------------------------|
-----------------------5-----|-----------------------------|
--5-7-7-7-7--5-7--5-7-----7--|--5-7-7-7-7--5-7--5-7--------|
-----------------------------|-----------------------5--7--|
-----------------------------|-----------------------------|


                                                        
-----------------------------|-------------------------|
-----------------------------|-------------------------|
-----------------------5-----|----------12-------------|
--5-7-7-7-7--5-7--5-7-----7--|--7---5b-----------------|
-----------------------------|----------7~----3--2-----|
-----------------------------|----------------------3--|


                                                                            
-------------------------|------------------------|------------------------|
-------------------------|------------------------|------------------------|
--------------4/-6-------|-------------7/-6-------|-------------4/-6-------|
--------------4/-6-------|-------------7/-6-------|-------------4/-6----2--|
--------------2/-4----2--|-------------5/-4----2--|-------------2/-4----2--|
--0--0--3--4----------0--|----0--3--4----------0--|----0--3--4----------0--|


                                                                           
-----------------------|-------------------------|------------------------|
-------------3---------|-------------------------|------------------------|
-------------2----2----|--------------4/-6-------|-------------7/-6-------|
-------------0----2----|--------------4/-6-------|-------------7/-6-------|
------------------0----|--------------2/-4----2--|-------------5/-4----2--|
----0--3--4------------|--0--0--3--4----------0--|----0--3--4----------0--|


                                                                     
------------------------|-----------------------|-------------------|
------------------------|-----------------------|-------------------|
-------------4/-6-------|-----------------------|-------------------|
-------------4/-6----2--|-------------3----4----|--5----------------|
-------------2/-4----2--|-------------3----4----|--5----------------|
----0--3--4----------0--|----0--3--4--1----2----|--3----------------|


                                                                     
-------------------|-----------------------|------------------------|
-------------------|-----------------------|------------------------|
--7----------------|--2--2----2----2----2--|----2-------------------|
--7----------------|--2--2----2----2----2--|----2-------------------|
--5----------------|--0--0----0----0----0--|----0----0--3b-0--3b-0--|
-------------------|-----------------------|------------------------|


                                                                 
-------------------|-------------------|------------------------|
-------------------|-------------------|------------------------|
-------------------|--7----------------|------------------------|
--5----------------|--7----------------|--5---------------------|
--5----------------|--5----------------|-------7-----5--7----5--|
--3----------------|-------------------|----------7-------------|


                                                                           
-----------------------|-------------------------|------------------------|
-----------------------|-------------------------|------------------------|
-----------------------|--------------4/-6-------|-------------7/-6-------|
-----------------------|--------------4/-6-------|-------------7/-6-------|
----4----2--4--2-------|--------------2/-4----2--|-------------5/-4----2--|
------------------3b---|--0--0--3--4----------0--|----0--3--4----------0--|


                                                                           
------------------------|-----------------------|-------------------------|
------------------------|-------------3---------|-------------------------|
-------------4/-6-------|-------------2----2----|--------------4/-6-------|
-------------4/-6----2--|-------------0----2----|--------------4/-6-------|
-------------2/-4----2--|------------------0----|--------------2/-4----2--|
----0--3--4----------0--|----0--3--4------------|--0--0--3--4----------0--|


                                                                          
------------------------|------------------------|-----------------------|
------------------------|------------------------|-----------------------|
-------------7/-6-------|-------------4/-6-------|-----------------------|
-------------7/-6-------|-------------4/-6----2--|-------------3----4----|
-------------5/-4----2--|-------------2/-4----2--|-------------3----4----|
----0--3--4----------0--|----0--3--4----------0--|----0--3--4--1----2----|


                                                                
-------------------|-------------------|-----------------------|
-------------------|-------------------|-----------------------|
-------------------|--7----------------|--2--2----2----2----2--|
--5----------------|--7----------------|--2--2----2----2----2--|
--5----------------|--5----------------|--0--0----0----0----0--|
--3----------------|-------------------|-----------------------|


                                                                 
------------------------|-------------------|-------------------|
------------------------|-------------------|-------------------|
----2-------------------|-------------------|--7----------------|
----2-------------------|--5----------------|--7----------------|
----0----0--3b-0--3b-0--|--5----------------|--5----------------|
------------------------|--3----------------|-------------------|


                                                                    
-----------------------|-----------------------|-------------------|
-----------------------|-----------------------|-------------------|
--2--2----2----2----2--|----2----2----2--2--2--|-------------------|
--2--2----2----2----2--|----2----2----2--2--2--|--5----------------|
--0--0----0----0----0--|----0----0----0--0--0--|--5----------------|
-----------------------|-----------------------|--3----------------|


                                                                         
-------------------|--------------------------|-------------------------|
-------------------|--------------------------|-------------------------|
--7----------------|--------------------------|-------------------------|
--7----------------|--------------2--2--4--5--|----5--4--4--2--2--------|
--5----------------|--0--0--3--4--------------|-------------------3--4--|
-------------------|--------------------------|-------------------------|


                                                                 
-------------------|-------------------|------------------------|
-------------------|-------------------|------------------------|
-------------------|--7----------------|------------------------|
--5----------------|--7----------------|------------4--------0--|
--5----------------|--5----------------|----0-2-2-0-2-----------|
--3----------------|-------------------|------------------------|


                                                                               
-------------------------|-----------------------|----------------------------|
-------------------------|-----------------------|----------------------------|
-----4/5-4/5-4-----------|-----7-----------------|----4--x-x-5--x-x-6--x-x-7/-|
--4--4/5-4/5-4-----------|--9--7-9--7-9----------|----4--x-x-5--x-x-6--x-x-7/-|
--2--2/3-2/3-2--------0--|--9----9--7-9----------|----2--x-x-3--x-x-4--x-x-5/-|
-------------------------|-----------------------|----------------------------|


                                                                    
----------------------|----------------------|---------------------|
----------------------|----------------------|---------------------|
--9----------7--9--7--|-----------7--9----9--|------------7--9--7--|
--9----------7--9--7--|------9----7--9----9--|------------7--9--7--|
--7----------------7--|-------------------7--|------------------7--|
----------------------|----------------------|---------------------|


                                                                    
----------------------|---------------------|----------------------|
----------------------|---------------------|----------------------|
-----------7--9----9--|------------7--9--7--|-----------7--9----9--|
------9----7--9----9--|------------7--9--7--|------9----7--9----9--|
-------------------7--|------------------7--|-------------------7--|
----------------------|---------------------|----------------------|


                                                                   
---------------------|----------------------|---------------------|
---------------------|----------------------|---------------------|
------------7--9--7--|-----------7--9-------|---------------------|
------------7--9--7--|------9----7--9----9--|------------7--9--7--|
------------------7--|-------------------9--|------------7--9--7--|
---------------------|-------------------7--|------------------7--|


                                                                    
----------------------|---------------------|----------------------|
----------------------|---------------------|----------------------|
----------------------|---------------------|----------------------|
-----------7--9----9--|------------7--9--7--|-----------7--9----9--|
------9----7--9----9--|------------7--9--7--|------9----7--9----9--|
-------------------7--|------------------7--|-------------------7--|


                                                                    
---------------------|----------------------|----------------------|
---------------------|----------------------|----------------------|
---------------------|----------------------|----------------------|
------------7--9--7--|-----------7--9----9--|----------7-----------|
------------7--9--7--|------9----7--9----9--|----------7--9--8--9--|
------------------7--|-------------------7--|----------7-----------|


                                                                
-----------------------|-------------------|-------------------|
-----------------------|-------------------|-------------------|
-----------------------|-------------------|--7----------------|
--x--9----8----7----6--|--5----------------|--7----------------|
--x--9----8----7----6--|--5----------------|--5----------------|
--x--7----6----5----4--|--3----------------|-------------------|


                                                             
-------------------|--------------------|-------------------|
-------------------|--------------------|-------------------|
--2----------------|--------------------|-------------------|
--2----------------|----------------x-x-|--5----------------|
--0----------------|----------------x-x-|--5----------------|
-------------------|----------------x-x-|--3----------------|


                                                                
-------------------|--------------------|----------------------|
-------------------|--------------------|----------------------|
--7----------------|--2--------2--------|--2----2----2----2----|
--7----------------|--2--------2--------|--2----2----2----2----|
--5----------------|--0--------0--------|--0----0----0----0----|
-------------------|--------------------|----------------------|


                                                                
-------------------|-------------------|-----------------------|
-------------------|-------------------|-----------------------|
-------------------|--7----------------|--2--2----2----2----2--|
--5----------------|--7----------------|--2--2----2----2----2--|
--5----------------|--5----------------|--0--0----0----0----0--|
--3----------------|-------------------|-----------------------|


                                                                 
------------------------|-------------------|-------------------|
------------------------|-------------------|-------------------|
----2-------------------|-------------------|--7----------------|
----2-------------------|--5----------------|--7----------------|
----0----0--3b-0--3b-0--|--5----------------|--5----------------|
------------------------|--3----------------|-------------------|


                                                                   
-----------------------|----------------------|-------------------|
-----------------------|----------------------|-------------------|
--2--2----2----2----2--|----2----2----2----2--|-------------------|
--2--2----2----2----2--|----2----2----2----2--|--5----------------|
--0--0----0----0----0--|----0----0----0----0--|--5----------------|
-----------------------|----------------------|--3----------------|


                                                                         
-------------------|--------------------------|-------------------------|
-------------------|--------------------------|-------------------------|
--7----------------|--------------------------|-------------------------|
--7----------------|--------------2--2--4--5--|----5--4--4--2--2--------|
--5----------------|--0--0--3--4--------------|-------------------3--4--|
-------------------|--------------------------|-------------------------|


                                                             
-------------------|--------------------|-------------------|
-------------------|--------------------|-------------------|
-------------------|--7-----------------|--2----------------|
--5----------------|--7-----------------|--2----------------|
--5----------------|--5------------3b---|--0----------------|
--3----------------|--------------------|-------------------|


                                                              
--------------------|-------------------|--------------------|
--------------------|-------------------|--------------------|
--------------------|-------------------|--7-----------------|
--------------------|--5----------------|--7-----------------|
--------------------|--5----------------|--5-----------------|
--------14/---------|--3----------------|-------------3b-----|


                                                                   
-------------------|-------------------------|--------------------|
-------------------|-------------------------|--------------------|
--2----------------|--------------x--x----x--|--2----2------------|
--2----------------|--------------x--x----x--|--2----2------------|
--0----------------|--------------x--x----x--|--0----0------------|
-------------------|-------------------------|--------------------|


                                                                               
------------------|-------------------|------------------|--------------------|
------------------|-------------------|------------------|--------------------|
------------------|--9----------------|------------------|--9--------9--------|
------------------|--7----------------|------------------|--7--------7--------|
------------------|-------------------|------------------|--------------------|
------------------|-------------------|------------------|--------------------|


                                                             
---------------------------|--------------------------------|
---------------------------|--------------------------------|
------9------9------9------|------9--9----9------9--9----9--|
------7------7------7------|------7--7----7------7--7----7--|
---------------------------|--------------------------------|
---------------------------|--------------------------------|


                                                                             
---------------------|--------------------------------|---------------------|
---------------------|--------------------------------|---------------------|
------9--------------|------9--9----9------9--9----9--|------9--------------|
------7--------------|------7--7----7------7--7----7--|------7--------------|
---------------------|--------------------------------|---------------------|
---------------------|--------------------------------|---------------------|


                                                       
--------------------------------|---------------------|
--------------------------------|---------------------|
------9--9----9------9--9----9--|------9--------------|
------7--7----7------7--7----7--|------7--------------|
--------------------------------|---------------------|
--------------------------------|---------------------|


                                                                           
--------------------------------|---------------------|-------------------|
--------------------------------|---------------------|-------------------|
------9--9----9------9--9----9--|------9--------------|-------------------|
------7--7----7------7--7----7--|------7--------------|--5----------------|
--------------------------------|---------------------|--5----------------|
--------------------------------|---------------------|--3----------------|


                                                                               
-------------------|------------------|------------------|-------------------||
-------------------|------------------|------------------|-------------------||
--7----------------|------------------|------------------|--2----------------||
--7----------------|------------------|------------------|--2----------------||
--5----------------|------------------|------------------|--0----------------||
-------------------|------------------|------------------|-------------------||
Acordes para:

    0 comentários

      mostrar mais comentários

      Conseguiu tocar?

      0tocaram0ainda não

      Grave um vídeo tocando Anything Goes e mande pra gente!

      00:00 / 00:00
      outros vídeos desta música
      repetirqualidadeautomática
      Outro vídeos desta música
        00:00 / 00:00
        automática
        OK