Notificações Amigos pendentes

      Guns N' Roses

      You Could Be Mine

      253.676 exibições
      Tom: E
                     transcription:
      
      fb: full bend                  hb: half bend
       ~: tremolo pickin (b,r,b,r...) r: release bend
       h: hammer on                   p: pull off
       ^: intense tremolo pickin     (\)or(/): slide
      
      
      
      Intro ( Guitars 1 & 2) 1x
      
         Riff 1: 2x
      
      E|-----------------------------------------|
      B|---16b17r16-----14~~---16b17r16-----12~~-|
      G|---16b17r16-14--14~~---16b17r16-12--12~~-|2x
      D|--------------16------------------14-----|
      A|-----------------------------------------|
      E|-----------------------------------------|
      
      
       Riff 2:  2x
      
      E|----------------------|
      B|-x-16b17r14-----14~~~-|
      G|-x-16b17r14-14--14~~~-|
      D|--------------16------|
      A|----------------------|
      E|----------------------|
      
      
      E|----------------------|
      B|-x-16b17r14-----12~~~-|
      G|-x-16b17r14-----12~~~-|
      D|--------------14------|
      A|----------------------|
      E|----------------------|
      
      
       Riff 3: 1x
      
      
      B|14b16r14-----12~~-12~~-12~~-12~~-12~~-|
      G|14b16r14-12--12~~-12~~-12~~-12~~-12~~-|
      D|-----------14---14---14---14---14-----|
      
      
                                 Intro solo:
      Guitar 1:
      
          F#5      G5      A5      B5    ( guitar 2 make the back rithm)
      E|-----------------------------------------|
      B|-----------------------------------------|
      G|--/9~~~--/13~~~--/14~~~-/16~~~--/16fb~~~-|
      D|-----------------------------------------|
      A|-----------------------------------------|
      E|-----------------------------------------|
      
      \\\\\\\\\\\\\\\\\\\\\\\\\\\\\\\\\\\\\\\\\\\\\\
      Guitar 2: verse riff 1x
                       record version
      Guitar 1: ( when the guitar 2 is playing the "E" part off verse)
      
      E|-------------------------------------------------------------|
      B|-5fb~(5)^^^--4fb-5fbr333h5p3---------5p33----5-2-4-2-4-2-----|
      G|---------------5hb~----------4fb4h5p4-----5hb~~2-4-2-4-2-4-2-|
      D|---------------------------------------------------------4-2-|
      A|-------------------------------------------------------------|
      E|-------------------------------------------------------------|
      
                                                          ...I'm a cold heart...
      
      obs: listen this part of music, is not to hard to play, the difficult is just to listen
      and understand what the experienced master Slash plays,and maybe is not 100% right,
      but is something like that...
      
              Verse Riff: (2x)
      
           F#5
      |---------------------------|
      |--2-4-2-4-2----------------|
      |--2-4-2-4-2-4-2-4-4-2-4-2-4|
      |------------4-2-4-4-2-4-2-4| 2x
      |---------------------------|
      |---------------------------|
      
      
           E
      E|---------------|---------------|
      B|-----------5-5-|--2-4-2-4-2----|
      G|--------x--4-4-|--2-4-2-4-2-4-2|
      D|--2--2--x--2-2-|------------4-2| 1x
      A|--2--2--x------|---------------|
      E|--0--0---------|---------------|
      
      
           F#5
      E|---------------|---------------|
      B|---------7-7---|--2-4-2-4-2----|
      G|-------x-6-6---|--2-4-2-4-2-4-2|
      D|--4--4-x-4-4---|------------4-2| 1x
      A|--4--4-x-------|---------------|
      E|--2--2---------|---------------|
      
      
                               Chorus:
      
          A5  B5     F#5
      E|-------------------|
      B|-------------------|
      G|-------------------|
      D|-7---9---------4---|
      A|-7---9---------4---|
      E|-5---7---------2---|
      
         You could be mi-ine
      
               A5  B5    F#5 C#5
      E|-----------------------|
      B|-----------------------|
      G|-----------------------|
      D|----------7---9-----4--|
      A|----------7---9-----4--|
      E|----------5---7-----2--|
      
        But your way was out off li-ine
      
                   A5                          B5
      E|--------------------------------------------------|
      B|--------------------------------------------------|
      G|--------------------------------------------------|
      D|----------7---------------------------9-----------|
      A|----------7---------------------------9-----------|
      E|----------5---------------------------7-----------|
      
       With your bitch slap rappin' And your cocaine tongue
      
                A5  G5   F#5
      E|-------------------|
      B|-------------------|
      G|-------------------|
      D|-------7---5----4--|
      A|-------7---5----4--|
      E|-------5---3----2--|
      
      You get nu--thin' done
      
              A5  B5       F#5
      E|---------------------|
      B|---------------------|
      G|---------------------|
      D|-----7---9--------4--|
      A|-----7---9--------4--|
      E|-----5---7--------2--|
      
      I said you could be mine
      //////////////////////////////////////////
      Guitar 2: Verse Riff 1x
      Guitar 1: Solo 1
      
            Solo 1:In the "E" part of verse riff
      
      E|----------------------------14-------17fb|
      B|-17fb~~~~~---17p14--17~-------17p14------|
      G|------------------14---------------------|
      D|-----------------------------------------|
      A|-----------------------------------------|
      E|-----------------------------------------|
      
      
      E|14------16b(16)r--1614-----------------|
      B|--17p14---------------1714h17p14-------|
      G|--------------------------------16-----|
      D|----------------------------------16~~-|
      A|---------------------------------------|
      E|---------------------------------------|
      
      
      Verse Riff: Guitar 1 & 2 2x
      
               Chorus 2:
      
      E|-----------------------|
      B|-----------------------|
      G|-----------------------|
      D|----------7---9-----4--|
      A|----------7---9-----4--|
      E|----------5---7-----2--|
      
        But your way was out off li-ine
      
                   A5                          B5
      E|--------------------------------------------------|
      B|--------------------------------------------------|
      G|--------------------------------------------------|
      D|----------7---------------------------9-----------|
      A|----------7---------------------------9-----------|
      E|----------5---------------------------7-----------|
      
       With your bitch slap rappin' And your cocaine tongue
      
                A5  G5   F#5
      E|-------------------|
      B|-------------------|
      G|-------------------|
      D|-------7---5----4--|
      A|-------7---5----4--|
      E|-------5---3----2--|
      
      You get nu--thin' done
      
              A5  B5         C#5
      E|-----------------------|
      B|-----------------------|
      G|--------------------6--|
      D|-----7---9----------6--|
      A|-----7---9----------4--|
      E|-----5---7-------------|
      
      I said you could be mi---ne
      \\\\\\\\\\\\\\\\\\\\\\\\\\\\\\\\\\
      Intro ( Guitars 1 & 2) 1x
      
      Bridge 1:
      
      
           G5          F#5       G5       D5    C#5  A5
      E|-----------------------------------------------|
      B|-----------------------------------------------|
      G|---------------------------------------6-6-----|
      D|---5----------4---------5--------7-----6-6--7--|
      A|---5----------4---------5--------7-----4-4--7--|
      E|---3----------2---------3--------5----------5--|
      
        ...You've gone sketchin' too many times...
      
      
           G5          F#5       G5       D5    C#5  A5
      E|-----------------------------------------------|
      B|-----------------------------------------------|
      G|---------------------------------------6-6-----|
      D|---5----------4---------5--------7-----6-6--7--|
      A|---5----------4---------5--------7-----4-4--7--|
      E|---3----------2---------3--------5----------5--|
      
        ...uhhh! Why don't ya give it a rest...
      
      
      E|-------------------------------------|
      B|-------------------------------------|
      G|-------------------------------------|
      D|---5------4---5--------9-----7--5--4-|
      A|---5------4---5--------9-----7--5--4-|
      E|---3------2---3--------7-----5--3--2-|
      
        ...Why~~~~~~ must to fi~~~~~~~~~~~~nd...
      \\\\\\\\\\\\\\\\\\\\\\\\\\\\\\\\\\\\\\\\\\\\\\\\\\\\\\\\\\\\\\\\\\\\\
       Guitar 2 - back rithm
       Guitar 1 - solo 2
      
                          Solo 2
      
                               B5                  D5 B5
      E|---------------------------------------------------------|
      B|---------------------------7hb7----10fb-79p7-9hb~-9p7-7^-|
      G|----------------x7~~~7hb---7hb9fb--9fb--79p7-9hb~79p7-7^-|
      D|----------------x7~~~7hb--------------------9--------9---|
      A|---------------------------------------------------------|
      E|---------------------------------------------------------|
      
      ..A couple off reason to cry
      
           D5 B5                      D5 A5                D5 B5
      E|---------------------------------------------------------------------------------|
      B|7-9hb--7----9------7^------------------------------------------------------------|
      G|7-9hb--79p7-9-79p7-7^---77h8p7p6-6-76h7p6-6~--67-6~-------------9hb9hb-----------|
      D|-----------9------9----9----------9------7---7--7---7---9^9^7h9p79hb9hb----------|
      A|-----------------------------------------------------9fb-----------------567~----|
      E|------------------------------------------------------------------------7----7~7~|
      
      
                D5 B5                            D5 B5
      E|-------------------12hb~~-------------12hb~~108h10p8p7--8h10p8h10p8----10h12p10--15fb~|
      B|--12^^^12h13p12p10-------12h13p12p10------------------10-----------8/12--------12-----|
      G|------------------12----------------12------------------------------------------------|
      D|(9)-----------------------------------------------------------------------------------|
      A|--------------------------------------------------------------------------------------|
      E|--------------------------------------------------------------------------------------|
      
      
               D5 A5
      e|12p10--10~~-10h12p10--15fb~~-12p10--10~~-10h12p10--15fb~~|
      B|-----12-------------12------------12-------------12------|
      G|---------------------------------------------------------|
      D|---------------------------------------------------------|
      A|---------------------------------------------------------|
      E|---------------------------------------------------------|
      
      
                                                   D5 B5
      e|12p10--10~~-10h12p10--15fb--15fb~~--12p10--17fb(17)fb^^^-|
      B|-----12-------------12----12-------------12--------------|
      G|---------------------------------------------------------|
      D|---------------------------------------------------------|
      A|---------------------------------------------------------|
      E|---------------------------------------------------------|
      
      
      E|17-----------------------------------|
      B|---17fb--17-15-----------------------|
      G|---------------16-14-----------------|
      D|---------------------16-14-----------|
      A|---------------------------17-14~~~--|
      E|-------------------------------------|
      
      
      Bridge 2:
       B5
      While you're breakin' down my back n'
             C5
      I been rackin' out my brain
               D5
      It don't matter how we make it
        Composição: Axl Rose / Izzy StradlinColaboração e revisão:
        • lukewilkshire.lukwill
        • Iguana

        Comentários 20

        140 .
        • Junior Junior: Em 08/10/2015 16:37

          é só falta uma video aula mesmo

        • lukewilkshire.lukwill lukewilkshire.lukwill: Em 03/06/2014 11:51

          Vídeo aula pfvr, não to entendendo muita coisa

        • henrikiguns henrikiguns: Em 12/06/2013 17:14

          essa musica é facil de aprender, mas as video aulas são boas por mostrar tbm os efeitos a serem usados

        • Vinicius Vinicius: Em 10/04/2013 21:46

          Izzy gênio

        • rafael_zete rafael_zete: Em 10/03/2013 19:30

          Video aula aquiiiiii plx

        • guilherme.dagaveaoliveira guilherme.dagaveaoliveira: Em 29/01/2013 13:47

          vídeo-aula por favor Cifra Club.

        • dudu_go dudu_go: Em 22/09/2012 13:15

          ow podia fazer uma aula pra gente.

        • lucass10 lucass10: Em 19/05/2012 21:18

          pra q aula é facilllllll

        • Parolis Parolis: Em 19/05/2012 10:42

          música mt fera, não tem como fazer uma aula pra gente????

        • marceguitarsolo marceguitarsolo: Em 09/05/2012 14:40

          faci essa hein

        140 cancelar

        conseguiu tocar?

        • •••

        covers

        Grave um vídeo tocando You Could Be Mine e mande pra gente!

        Ex.: http://www.youtube.com/watch?v=0IvSvIwGdwk
        ver covers de outras músicas »
        0:00 / 0:00

        Capítulos

          2 versões de violão dificuldade exibições contribuição e correção
          2 versões de guitarra dificuldade exibições contribuição e correção
          2 versões de cavaco dificuldade exibições contribuição e correção
          2 versões de teclado dificuldade exibições contribuição e correção
          2 versões de baixo exibições contribuição e correção
          1 versão de bateria exibições contribuição e correção
          1 versão de Guitar Proformatodownloadscontribuição
          play/pausefechar subir/descer velocidade
          6ª corda E5ª corda A4ª corda D3ª corda G2ª corda B1ª corda E
            acordes
            publicidade
            fechar
            ok