Notificações Amigos pendentes

      Guns N' Roses

      You Could Be Mine

      33.239 exibições
      Bass intro.
      g----------------
      d----------------
      a----------------
      e--0--7-7--5--3--
      
      
      
      The below part is repeated over and over again in the beginning and all the
      way through Slash's beginning guitar work. Make sure when you play this part
      that you keep in time with the beat.
      
      g---------
      d---------
      a---------
      e--0-00-3-
      
      
      
      After Slash has done his thing the keyboard enters with a scale. Make sure
      that every time the keyboard goes up a octive that you go up to the next fret
      like seen below.
      
      g-------------------------------------------------------------------
      d-------------------------------------------------------------------
      a-------------------------------------------------------------------
      e--0-0-0-0-0-0-0-0-2-2-2-2-2-2-2-2-3-3-3-3-3-3-3-3-5-5-5-5-5-5-5-5--
      
      
      
      As the keyboard playes that last of the keyboard scale Duff and Izzy enter
      playing the main riff.
      
      Play LICK 1 twice then play LICK 2 followed by LICK 1 again as Slash enters
      with his guitar intro. 
      
      |___________LICK_1____________|  |___________LICK_2____________|
      g-------------------------------  -------------------------------
      d-------------------------------  -------------------------------
      a-------------------------------  -------------------------------
      e--0--2--0--2-2-2--0--5-5-5--3--  --0---5-5--3-3--2-2---0--2--3--
      
      
      
      The above is repeated twice more through the verses. If you do it right it
      should turn out like this.
      
      	LICK 1
      	"I'm a cold heartbreaker fit ta burn"
      
      	LICK 1
      	"And I'll rip your heart in two"
      
      	LICK 2
      	"An I'll leave you lyin' on the bed" [LICK 1]
      
      
      
      Here's the chorus. (Sorry but the words don't match up to the notes.)
      
      'Cause you could be mi-e-ine	  But your way out of li-e-ine
      g--------------------        	--------------------------------
      d--------------------		--------------------------------
      a--------------------		--------------------------------
      e--3-5-----4--2-5-2--		--2--4--5-----7--4-4-2--0-2-0-2-
      
      With your bitch slap rappin' and you cocaine tunge
      g---------------------------
      d---------------------------
      a---------------------------
      e--2--4--5-5-5-5-5-5-4-2-2--
      
         You get nothin' done		I said you could be mi__ine
      g----------------------------	-----------------
      d----------------------------	-----------------
      a----------------------------	-----------------
      e--2--4--5-----4-----2--222--	--9--7--9--5--2--
      
      -----------------------------------------------------------------------------------------
      
      Chico - Baixista da Crash Diet (Cover de Guns n´Roses - BH)www.crashdiet.cjb.net
      Essa tab é a mais certa .......so lembrando q o guns toca todas as mśsicas meio tom abaixo 
      
      
      ------------------|-------------------------|----------------------------| 
      ------------------|-------2--4--2-----------|----------------------------| 
      ------------------|----2-----------3--2--0--|----------------------------| 
      ------------------|-------------------------|--2--2--2--0-0-2--2--2--0-0-| 
                                                                
      ----------------------------|----------------------------| 
      ----------------------------|----------------------------| 
      ----------------------------|----------------------------| 
      --2--2--2--0-0-2--2--0--2-2-|--0--0--2--2-2-0--0--2--2-2-| 
                                                                
      ----------------------------|----------------------------| 
      ----------------------------|----------------------------| 
      ----------------------------|----------------------------| 
      --0--0--2--2-2-0--0--2--0-0-|--2--2--2--0-0-2--2--2--0-0-| 
                                                                
      ----------------------------|----------------------------| 
      ----------------------------|----------------------------| 
      ----------------------------|----------------------------| 
      --2--2--2--0-0-2--2--0--2-2-|--0--0--2--2-2-0--0--2--2-2-| 
                                                                
      ----------------------------|----------------------------| 
      ----------------------------|----------------------------| 
      ----------------------------|----------------------------| 
      --0--0--2--2-2-0--0--2--0-0-|--2--2--2--0-0-2--2--2--0-0-| 
                                                                
      ----------------------------|----------------------------| 
      ----------------------------|----------------------------| 
      ----------------------------|----------------------------| 
      --2--2--2--0-0-2--2--0--2-2-|--0--0--2--2-2-0--0--2--2-2-| 
                                                                
      ----------------------------|----------------------------| 
      ----------------------------|----------------------------| 
      ----------------------------|----------------------------| 
      --0--0--2--2-2-0--0--2--0-0-|--2--2--2--0-0-2--2--2--0-0-| 
                                                                 
      ----------------------------|----------------------------| 
      ----------------------------|----------------------------| 
      ----------------------------|----------------------------| 
      --2--2--2--0-0-2--2--0--2-2-|--0--0--2--2-2-0--0--2--2-2-| 
                                                                
      ----------------------------|----------------------------| 
      ----------------------------|----------------------------| 
      ----------------------------|----------------------------| 
      --0--0--2--2-2-0--0--2--0-0-|--2--2--2--0-0-2--2--2--0-0-| 
                                                                
      ----------------------------|----------------------------| 
      ----------------------------|----------------------------| 
      ----------------------------|----------------------------| 
      --2--2--2--0-0-2--2--0--2-2-|--0--0--2--2-2-0--0--2--2-2-| 
                                                                
      ----------------------------|----------------------------| 
      ----------------------------|----------------------------| 
      ----------------------------|----------------------------| 
      --0--0--2--2-2-0--0--2--0-0-|--2--2--2--0-0-2--2--2--0-0-| 
                                                                
      ----------------------------|----------------------------| 
      ----------------------------|----------------------------| 
      ----------------------------|----------------------------| 
      --2--2--2--0-0-2--2--0--2-2-|--0--0--2--2-2-0--0--2--2-2-| 
                                                             
      ---------------------------|--------------------------| 
      ---------------------------|--------------------------| 
      ---------------------------|--------------------------| 
      --0--0--2--2-2-0--0--0--0--|--0--0--0--0--0--0--0--0--| 
                                                            
      --------------------------|--------------------------| 
      --2--2--2--2--2--2--2--2--|--2--2--2--2--------2--2--| 
      --------------------------|--------------2--2--------| 
      --------------------------|--------------------------| 
      
      --------------------------|------------------------|-------------------------|
      --2-----------------------|------------------------|-------------------------|
      -----0--2--0--2--0--------|------------------------|----0--2--0--2--0--------|
      --------------------2--0--|--2----2----0--2--0--2--|-------------------2--0--|
      
      ------------------------|-------------------------|-----------------0--1--|
      ------------------------|-------------------------|--------------4--------|
      ------------------------|----0--2--0--2--0--------|-----------------------|
      --2----2----0--2--0--2--|-------------------2--0--|--0----0---------------|
      
      -------------------------|------------------------|-------------------------|
      -------------------------|------------------------|-------------------------|
      ----0--2--0--2--0--------|------------------------|----0--2--0--2--0--------|
      -------------------2--0--|--2----2----0--2--0--2--|-------------------2--0--|
      
      -------------------------|--------------------------|--------------------------|
      -------------------------|--------------------------|--------------------------|
      -------------------------|--------------------------|--------------------------|
      --2----2--0--2--2--2--0--|--2--2--2--0--2--2--2--0--|--2--2--2--0--2--2--2--0--|
      
      ------------------------|--------------------------|--------------------------|
      -----4----------3-------|--------------------------|--------------------------|
      ------------------------|--------------------------|--------------------------|
      --2-------2--1-------1--|--0--0--0--0--0--0--0--0--|--0--0--0--0--0--0--0--0--|
      
      -----------------------|--------------------------|--------------------------|
      -----------------------|--------------------------|--------------------------|
      -----------------------|-----0--2--0--2--0--------|--------------------------|
      --2----2----2--2----2--|--2-----------------2--0--|--2--2--2--2--2--2--2--2--|
                                                             
      --------------------------|--------------------------| 
      --------------------------|--------------------------| 
      --------------------------|--------------------------| 
      --2--2--2--2--2--2--2--0--|--2--2--2--2--2--2--2--2--| 
                                                            
      --------------------------|--------------------------| 
      --------------------------|--------------------------| 
      --------------------------|--------------------------| 
      --2--2--2--2--2--2--2--2--|--0--0--0--0--0--0--0--0--| 
      
      --------------------------|-------------------------|-------------------------|
      --------------------------|-------------------------|-------------------------|
      --------------------------|-------------------------|----0--2--0--2--0--------|
      --0--0--0--0--0--0--0--0--|--2----2--2--2--2--2--2--|-------------------2--0--|
                                                            
      --------------------------|--------------------------| 
      --------------------------|--------------------------| 
      --0--0--0--0--0--0--0--0--|--2--2--2--2--2--2--2--2--| 
      --------------------------|--------------------------| 
                                                            
      --------------------------|--------------------------| 
      --------------------------|--------------------------| 
      --------------------------|--------------------------| 
      --2--2--2--2--2--2--2--2--|--2--2--2--2--2--2--2--2--| 
                                                            
      --------------------------|--------------------------| 
      --------------------------|--------------------------| 
      --0--0--0--0--0--0--0--0--|--2--2--2--2--2--2--2--0--| 
      --------------------------|--------------------------| 
                                                             
      ---------------------------|--------------------------| 
      -----------------------2-3-|--4--4--4--4--4--2--------| 
      ---------------------------|--------------------4--2--| 
      --2--2--2--2--2--2--2------|--------------------------| 
                                                             
      --------------------------|--------------------------| 
      --------------------------|--------------------------| 
      --0--0--0--0--0--0--0--0--|--2--2--2--2--2--2--2--0--| 
      --------------------------|--------------------------| 
                                                             
      --------------------------|--------------------------| 
      --------------------------|--------------------------| 
      --------------------------|--------------------------| 
      --2--2--2--2--2--2--2--2--|--2--2--2--2--0--2--2--4--| 
                                                              
      --------------------------|---------------------------| 
      --------------------------|-----------------------2-3-| 
      --0--0--0--0--0--0--0--0--|--2--2--2--2--2--2--2------| 
      --------------------------|---------------------------| 
      
      --------------------------|--------------------------|------------------------|
      --4--2--------------------|--------------------------|------------------------|
      --------4--3--2--0--------|-----0--2--0--2--0--------|------------------------|
      --------------------2--0--|--2-----------------2--0--|--2----2----0--2--0--2--|
      
      -------------------------|------------------------|-------------------------|
      -------------------------|------------------------|-------------------------|
      ----0--2--0--2--0--------|------------------------|----0--2--0--2--0--------|
      -------------------2--0--|--2----2----0--2--0--2--|-------------------2--0--|
      
      -----------------0--1--|-------------------------|------------------------|
      --------------4--------|-------------------------|------------------------|
      -----------------------|----0--2--0--2--0--------|------------------------|
      --0----0---------------|-------------------2--0--|--2----2----0--2--0--2--|
      
      -------------------------|--------------------------|--------------------------|
      -------------------------|--------------------------|--------------------------|
      ----0--2--0--2--0--------|--------------------------|--------------------------|
      -------------------2--0--|--2--2--2--2--2--2--2--2--|--2--2--2--2--2--2--0--0--|
      
      --------------------------|------------------------|--------------------------|
      --------------------------|-----4----------3-------|--------------------------|
      --------------------------|------------------------|--------------------------|
      --2--2--2--2--2--2--2--2--|--2-------2--1-------1--|--0--0--0--0--0--0--0--0--|
      
      --------------------------|-----------------------|--------------------------|
      --------------------------|-----------------------|--------------------------|
      --------------------------|-----------------------|-----0--2--0--2--0--------|
      --0--0--0--0--0--0--0--0--|--2----2----2--2----2--|--2-----------------2--0--|
                                                             
      --------------------------|--------------------------| 
      --------------------------|--------------------------| 
      --------------------------|--------------------------| 
      --2--2--2--2--2--2--2--2--|--2--2--2--2--2--2--0--0--| 
                                                             
      --------------------------|--------------------------| 
      --------------------------|--------------------------| 
      --------------------------|--------------------------| 
      --2--2--2--2--2--2--2--2--|--2--2--2--2--2--2--2--2--| 
      
      --------------------------|--------------------------|-------------------------|
      --------------------------|--------------------------|-------------------------|
      --------------------------|--------------------------|-------------------------|
      --0--0--0--0--0--0--0--0--|--0--0--0--0--0--0--0--0--|--2----2--2--2--2--2--2--|
      
      -------------------------|--------------------------|--------------------------|
      -------------------------|--------------------------|--------------------------|
      ----0--2--0--2--0--------|--0--0--0--0--0--0--0--0--|--2--2--2--2--2--2--2--2--|
      -------------------2--0--|--------------------------|--------------------------|
                                                            
      --------------------------|--------------------------| 
      --------------------------|--------------------------| 
      --------------------------|--------------------------| 
      --2--2--2--2--2--2--2--2--|--2--2--2--2--2--2--2--2--| 
                                                           
      --------------------------|-------------------------| 
      --------------------------|-------------------------| 
      --0--0--0--0--0--0--0--0--|--2--2--2----2--2--2--0--| 
      --------------------------|-------------------------| 
                                                             
      ---------------------------|--------------------------| 
      -----------------------2-3-|--4--4--4--4--4--2--------| 
      ---------------------------|--------------------4--2--| 
      --2--2--2--2--2--2--2------|--------------------------| 
                                                            
      --------------------------|--------------------------| 
      --------------------------|--------------------------| 
      --0--0--0--0--0--0--0--0--|--2--2--2--2--2--2--2--0--| 
      --------------------------|--------------------------| 
                                                            
      --------------------------|--------------------------| 
      --------------------------|--------------------------| 
      --------------------------|--------------------------| 
      --2--2--2--2--2--2--2--2--|--2--2--2--2--0--2--2--4--| 
                                                            
      --------------------------|--------------------------| 
      --------------------------|--------------------------| 
      --0--0--0--0--0--0--0--0--|--2--2--2--2--2--2--2--2--| 
      --------------------------|--------------------------| 
      
      --------------------------|---------------------|----------------------------|
      --------------------------|---------------------|----------------------------|
      --4--4--4--4--4--4--4--4--|--4------------------|----------------------------|
      --------------------------|-----------------0-0-|--2--2--2--0-0-2--2--2--0-0-|
                                                                
      ----------------------------|----------------------------| 
      ----------------------------|----------------------------| 
      ----------------------------|----------------------------| 
      --2--2--2--0-0-2--2--0--2-2-|--0--0--2--2-2-0--0--2--2-2-| 
                                                                
      ----------------------------|----------------------------| 
      ----------------------------|----------------------------| 
      ----------------------------|----------------------------| 
      --0--0--2--2-2-0--0--2--0-0-|--2--2--2--0-0-2--2--2--0-0-| 
                                                                
      ----------------------------|----------------------------| 
      ----------------------------|----------------------------| 
      ----------------------------|----------------------------| 
      --2--2--2--0-0-2--2--0--2-2-|--0--0--2--2-2-0--0--2--2-2-| 
                                                                
      ----------------------------|----------------------------| 
      ----------------------------|----------------------------| 
      ----------------------------|----------------------------| 
      --0--0--2--2-2-0--0--2--0-0-|--2--2--2--0-0-2--2--2--0-0-| 
                                                                
      ----------------------------|----------------------------| 
      ----------------------------|----------------------------| 
      ----------------------------|----------------------------| 
      --2--2--2--0-0-2--2--0--2-2-|--0--0--2--2-2-0--0--2--2-2-| 
                                                                
      ----------------------------|----------------------------| 
      ----------------------------|----------------------------| 
      ----------------------------|----------------------------| 
      --0--0--2--2-2-0--0--2--0-0-|--2--2--2--0-0-2--2--2--0-0-| 
                                                                 
      ----------------------------|----------------------------| 
      ----------------------------|----------------------------| 
      ----------------------------|----------------------------| 
      --2--2--2--0-0-2--2--0--2-2-|--0--0--0--2-2-0--0--0--2-2-| 
                                                              
      ---------------------------|--------------------------| 
      ---------------------------|--------------------------| 
      ---------------------------|--------------------------| 
      --0--0--0--2-2-0--0--0--0--|--3--3--3--3--3--3--3--3--| 
      
      --------------------------|------------------------|------------------------|
      --------------------------|---------------0--0-----|------------------------|
      --------------------------|--0----0----0--------0--|--0----0----0--0--0--0--|
      --2--2--2--2--3--3--3--3--|------------------------|------------------------|
      
      --------------------------|--------------------------|------------------------|
      --------------------------|--------------------------|---------------0--0-----|
      --------------------------|--------------------------|--0----0----0--------0--|
      --3--3--3--3--3--3--3--3--|--2--2--2--2--3--3--3--3--|------------------------|
      
      ------------------------|--------------------------|--------------------------|
      ------------------------|--------------------------|--------------------------|
      --0----0----0--0--0--0--|--------------------------|-----------------------0--|
      ------------------------|--3--3--3--3--3--3--3--3--|--2--2--2--2--3--3--3-----|
      
      --------------------------|--------------2--2--2-----|------------0---------|
      --------------------------|--------------------------|-------0--------------|
      --2--2--2--2--2--2--2--2--|--0--0--0--0-----------0--|----------------------|
      --------------------------|--------------------------|--3----------------0--|
      
      --------------------------|-------------------------|------------------------|
      --------------0--0--0-----|-------------------------|------------0--0--------|
      -----------------------2--|----2--2--0--2--2--0--2--|----2--2----------0--2--|
      --2--0--1--2--------------|-------------------------|------------------------|
      
      -------------------------|------------------------|-------------------------|
      -------------------------|------------0--0--0-----|-------------------------|
      ----2--2--0--2--2--0--2--|----2--2-------------0--|----0--0--0--0--------0--|
      -------------------------|------------------------|----------------3--3-----|
      
      ------------------------|-------------------------|------------------------|
      ------------0--0--------|-------------------------|------------0--0--------|
      ----0--0----------0--2--|----2--2--0--2--2--0--2--|----2--2----------0--2--|
      ------------------------|-------------------------|------------------------|
      
      -------------------------|------------------------|-------------------------|
      -------------------------|------------0--0--------|-------------------------|
      ----2--2--0--2--0--1--2--|----2--2----------0--2--|----2--0--1--2--2--0--1--|
      -------------------------|------------------------|-------------------------|
      
      --------------------------|-------------------0--2--|----0--------------------|
      --------------0--0--0-----|----------------2--------|-------2-----0--0--------|
      --2--2--2--0-----------0--|----0--0--0--0-----------|----------0--------4--2--|
      --------------------------|-------------------------|-------------------------|
      
      -------------------------|-------4-----4-----4-----|--------------------------|
      -------------------------|-------------------------|--------------------------|
      ----2--2--0--2--0--1--2--|----2-----2-----2-----2--|--2--2--2--2--2--2--2--0--|
      -------------------------|-------------------------|--------------------------|
      
      --------------------------|--------------------------|------------------------|
      --------------------------|--0--0--0--0--0--0--0--0--|--0--0--0--0--0---------|
      --4--4--4--4--4--4--4--0--|--------------------------|-------------------0----|
      --------------------------|--------------------------|------------------------|
                                                            
      --------------------------|--------------------------| 
      --------------------------|--------------------------| 
      --2--2--2--2--2--2--2--0--|--4--4--4--4--4--4--4--0--| 
      --------------------------|--------------------------| 
                                                          
      --------------------------|------------------------| 
      --0--0--0--0--0--0--0--0--|--0--0--0--0--0---------| 
      --------------------------|-------------------0----| 
      --------------------------|------------------------| 
                                                                    
      ------------------------------|------------------------------| 
      ------------------------------|------------------------------| 
      --2--0-0-2--0-0-2--0-0-2--0-0-|--4--2-2-4--2-2-4--2-2-4--0-0-| 
      ------------------------------|------------------------------| 
                                                                
      ------------------------------|--------------------------| 
      --0------0------0------0------|--0------0------0---------| 
      -----4-4----4-4----4-4----4-4-|-----4-4----4-4------4----| 
      ------------------------------|--------------------------| 
                                                                    
      ------------------------------|------------------------------| 
      ------------------------------|------------------------------| 
      --2--0-0-2--0-0-2--0-0-2--0-0-|--4--2-2-4--2-2-4--2-2-4--0-0-| 
      ------------------------------|------------------------------| 
                                                                 
      -------------------7--7--7--|--7-7-7-7-7--7-7-7-7-7--6----| 
      --0--0-0-0--0-0-4-----------|-----------------------------| 
      ----------------------------|-----------------------------| 
      ----------------------------|-----------------------------| 
                                                            
      --------------------------|--------------------------| 
      --------------------------|--------------------------| 
      --------------------------|--2--2--2--2--2--2--2--2--| 
      --5--5--5--5--5--5--5--5--|--------------------------| 
                                                            
      --------------------------|--------------------------| 
      --------------------------|--------------------------| 
      --------------------------|--------------------------| 
      --2--2--2--2--2--2--2--2--|--2--2--2--2--2--2--2--2--| 
                                                           
      --------------------------|-------------------------| 
      --------------------------|-------------------------| 
      --0--0--0--0--0--0--0--0--|--2--2--2----2--2--2--0--| 
      --------------------------|-------------------------| 
                                                             
      ---------------------------|--------------------------| 
      -----------------------2-3-|--4--4--4--4--4--2--------| 
      ---------------------------|--------------------4--2--| 
      --2--2--2--2--2--2--2------|--------------------------| 
                                                            
      --------------------------|--------------------------| 
      --------------------------|--------------------------| 
      --0--0--0--0--0--0--0--0--|--2--2--2--2--2--2--2--0--| 
      --------------------------|--------------------------| 
                                                            
      --------------------------|--------------------------| 
      --------------------------|--------------------------| 
      --------------------------|--------------------------| 
      --2--2--2--2--2--2--2--2--|--2--2--2--2--0--2--2--4--| 
                                                            
      --------------------------|--------------------------| 
      --------------------------|--------------------------| 
      --0--0--0--0--0--0--0--0--|--2--2--2--2--2--2--2--2--| 
      --------------------------|--------------------------| 
                                                             
      --------------------------|--------------------------| 
      --------------------------|--------------------------| 
      --0--0--0--0--0--0--0--0--|--2--2--2--2--2--2--2--2--| 
      --------------------------|--------------------------| 
      
      --------------------------|-------------------------|------------------------|
      --------------------------|-------------------------|------------------------|
      --0--0--0--0--0--0--0--0--|----0--2--0--2--0--------|------------------------|
      --------------------------|-------------------2--0--|--2----2----0--2--0--2--|
      
      -------------------------|------------------------|-------------------------|
      -------------------------|------------------------|-------------------------|
      ----0--2--0--2--0--------|------------------------|----0--2--0--2--0--------|
      -------------------2--0--|--2----2----0--2--0--2--|-------------------2--0--|
      
      ------------------------|-------------------------|------------------------|
      ------------------------|-------------------------|------------------------|
      ------------------------|----0--2--0--2--0--------|------------------------|
      --2----2----0--2--0--2--|-------------------2--0--|--2----2----0--2--0--2--|
      
      -------------------------|------------------------|-------------------------|
      -------------------------|------------------------|-------------------------|
      ----0--2--0--2--0--------|------------------------|----0--2--0--2--0--------|
      -------------------2--0--|--2----2----0--2--0--2--|-------------------2--0--|
      
      ------------------------|-------------------------|------------------------|
      ------------------------|-------------------------|------------------------|
      ------------------------|----0--2--0--2--0--------|------------------------|
      --2----2----0--2--0--2--|-------------------2--0--|--2----2----0--2--0--2--|
      
      
      _______________________________________________________
      Contribuição: luiz eduardo saragozo de freitas(luizeduardosf@bol.com.br)

      Comentários 0

      140 .
      140 cancelar

      conseguiu tocar?

      covers

      Grave um vídeo tocando You Could Be Mine e mande pra gente!

      Ex.: http://www.youtube.com/watch?v=0IvSvIwGdwk
      ver covers de outras músicas »
      0:00 / 0:00

      Capítulos

        2 versões de violão dificuldade exibições contribuição e correção
        2 versões de guitarra dificuldade exibições contribuição e correção
        2 versões de cavaco dificuldade exibições contribuição e correção
        2 versões de teclado dificuldade exibições contribuição e correção
        2 versões de baixo exibições contribuição e correção
        1 versão de bateria exibições contribuição e correção
        1 versão de Guitar Proformatodownloadscontribuição
        play/pausefechar subir/descer velocidade
        6ª corda E5ª corda A4ª corda D3ª corda G2ª corda B1ª corda E
          acordes
          publicidade
          fechar
          ok