Cifra Club

Aprenda

Down On The Farm

Guns N' Roses

Cifra: Versão 3 (violão e guitarra)
Tom: G
Words And Music By The UK Subs



 Introduction (Gilby Does Short Vertical Pickslides On D String Approx. 1" From Pickup)                                                                        
||--------------------|-----------------------|
||--------------------|-----------------------|
||--------------------|--2--------------------|
||--------------------|--2-------4-------2----|
||--------------------|--0-------2-------2----|
||--------------0--0--|-------0-------0-------|


                                                                        
|-----------------------|-----------------------|-----------------------|
|-----------------------|-----------------------|-----------------------|
|-------0----1----------|--2--------------------|-------1---------------|
|-------2----2----------|--2-------4-------2----|------------2----------|
|-----------------------|--0-------2-------2----|------------2----------|
|----0------------0--0--|-------0-------0-------|--0--------------0--0--|


                                                                       
|-----------------------|----------------------|-----------------------|
|-----------------------|----------------------|-----------------------|
|--2--------------------|------0----1----------|--2--------------------|
|--2-------4-------2----|------2----2----------|--2-------4-------2----|
|--0-------2-------2----|----------------------|--0-------2-------2----|
|-------0-------0-------|----------------0--0--|-------0-------0-------|


                                                                     
|----------------------|---------------------|-----------------------|
|----------------------|---------------------|-----------------------|
|--------------2-------|-------------5----3--|------3----3--3--3-----|
|--2----2------2----5--|------5------5----3--|------3----3--3--3-----|
|--2----2------0----5--|------5------3----1--|------1----1--1--1-----|
|--0----0-----------3--|------3--------------|-----------------------|


                                                                      
|------------------------|----------------------|---------------------|
|------------------------|----------------------|---------------------|
|--5-------7----7--7-----|--------------2-------|-------------5----3--|
|--5-------7----7--7-----|--2----2------2----5--|------5------5----3--|
|--3-------5----5--5-----|--2----2------0----5--|------5------3----1--|
|------------------------|--0----0-----------3--|------3--------------|


                                                                          
|-----------------------|------------------------|
|-----------------------|------------------------|
|------3----3--3--3-----|--5--5-----7----7--7----|
|------3----3--3--3-----|--5--5-----7----7--7----|
|------1----1--1--1-----|--3--3-----5----5--5----|
|-----------------------|------------------------|



 Verse Riff: Slash And Gilby: Play 4 Times
|------------------------------------------|
|------------------------------------------|
|------------------------------------------|
|--2----------------5--7----------5--------|
|--2------7--5------3--5----------3---7----|
|---------5--3------------------------5----|



 Bridge
|----------------------|---------------------|-----------------------|
|----------------------|---------------------|-----------------------|
|--------------2-------|-------------5----3--|------3----3--3--3-----|
|--2----2------2----5--|------5------5----3--|------3----3--3--3-----|
|--2----2------0----5--|------5------3----1--|------1----1--1--1-----|
|--0----0-----------3--|------3--------------|-----------------------|


                                                                      
|------------------------|----------------------|---------------------|
|------------------------|----------------------|---------------------|
|--5-------7----7--7-----|--------------2-------|-------------5----3--|
|--5-------7----7--7-----|--2----2------2----5--|------5------5----3--|
|--3-------5----5--5-----|--2----2------0----5--|------5------3----1--|
|------------------------|--0----0-----------3--|------3--------------|


                                                                          
|-----------------------|------------------------|
|-----------------------|------------------------|
|------3----3--3--3-----|--5--5-----7----7--7----|
|------3----3--3--3-----|--5--5-----7----7--7----|
|------1----1--1--1-----|--3--3-----5----5--5----|
|-----------------------|------------------------|



 Verse Riff: Slash And Gilby: Play 4 Times
|------------------------------------------|
|------------------------------------------|
|------------------------------------------|
|--2----------------5--7----------5--------|
|--2------7--5------3--5----------3---7----|
|---------5--3------------------------5----|



 Solo: Slash: Play 2 Times: With Riff A
|--------------------------------------------|
|------15-------15-------15------------------|
|--16b------16b------16b-----14--14h16-14----|
|--------------------------------------------|
|--------------------------------------------|
|--------------------------------------------|


|---------------------------------------------|
|---------------------------------------------|
|------10-------10-------10-------------------|
|--11b------11b------11b-----9---9h11---7-----|
|---------------------------------------------|
|---------------------------------------------|



 Bridge
|----------------------|---------------------|-----------------------|
|----------------------|---------------------|-----------------------|
|--------------2-------|-------------5----3--|------3----3--3--3-----|
|--2----2------2----5--|------5------5----3--|------3----3--3--3-----|
|--2----2------0----5--|------5------3----1--|------1----1--1--1-----|
|--0----0-----------3--|------3--------------|-----------------------|


                                                                      
|------------------------|----------------------|---------------------|
|------------------------|----------------------|---------------------|
|--5-------7----7--7-----|--------------2-------|-------------5----3--|
|--5-------7----7--7-----|--2----2------2----5--|------5------5----3--|
|--3-------5----5--5-----|--2----2------0----5--|------5------3----1--|
|------------------------|--0----0-----------3--|------3--------------|


                                                                          
|-----------------------|------------------------|
|-----------------------|------------------------|
|------3----3--3--3-----|--5--5-----7----7--7----|
|------3----3--3--3-----|--5--5-----7----7--7----|
|------1----1--1--1-----|--3--3-----5----5--5----|
|-----------------------|------------------------|



 Riff Verse: Slash And Gilby: Play 9 Times
|------------------------------------------|
|------------------------------------------|
|------------------------------------------|
|--2----------------5--7----------5--------|
|--2------7--5------3--5----------3---7----|
|---------5--3------------------------5----|



 Final Riff: Slash And Gilby: Play 4 Times
|-------------------------------------------|
|-------------------------------------------|
|-------------------------------------------|
|--2----------------5--7-7-7-7-7--------2---|
|--2------7--5------3--5-5-5-5-5--------2---|
|---------5--3------------------------------|



 Gilby: Riff A: Play 4 Times
|--------------------------------------|
|--------------------------------------|
|--------------------------------------|
|--4--4----4--4----4--3------------7---|
|--2--2----2--2----2--1--7--5------5---|
|------------------------5--3----------|
Composição de Alvin Gibbs / Charlie Harper / Nicholas Garrett
1.177 exibições
    • ½ Tom
    • A
    • Bb
    • B
    • C
    • Db
    • D
    • Eb
    • E
    • F
    • F#
    • G
    • Ab
  • Adicionar à lista

    0 comentários

    Mostrar mais comentários

    Conseguiu tocar?

    0 Tocaram 0 Ainda não

    Grave um vídeo tocando Down On The Farm e mande pra gente!

    00:00 / 00:00
    outros vídeos desta música
    repetir qualidade Automático
    Outros vídeos desta música
    00:00 / 00:00
    Automático
    OK