Cifra Club

Aprenda

Caso Consumado

Gusttavo Lima

Cifra: Completa (violão e guitarra)
Tom: A
A           E                        F#m
Eu te amo eu te quero mais assim não da
                    D                       A
Nosso caso é consumado e não da pra esperar
                    E                      F#m
Você vai ver o que perdeu quando me encontrar
                     D                     A
Nos braços de outro alguém ai cê vai chorar

(solo) A E F#m D

(parte 1)
E|-------------------------5--4----|
B|----5---7--5---5-----5--------5/7|
G|4/6---6------6---4/6---6---------|
D|---------------------------------|
A|---------------------------------|
E|---------------------------------|

(parte 2)
E|-------------------------5h7-5---|
B|----5---7--5---5-----5--------9-7|
G|4/6---6------6---4/6---6---------|
D|---------------------------------|
A|---------------------------------|
E|---------------------------------|

A                E                F#m     D
Tentei te procurar você se escondeu
A                E               F#m        D
As vezes penso que de mim você se esqueceu
A                E               F#m     D
Suas atitudes me provaram que a paixão
A                E            F#m     D
As vezes é intensa as vezes é em vão

Bm         D          A     E
Meus pensamentos a chorar
Bm         D                     E   D
Preso no tempo sem chance de voltar

A           E                        F#m
Eu te amo eu te quero mais assim não da
                    D                       A
Nosso caso é consumado e não da pra esperar
                    E                      F#m
Você vai ver o que perdeu quando me encontrar
                     D                     A
Nos braços de outro alguém ai cê vai chorar

(solo) A E F#m D

(parte 1)
E|-------------------------5--4----|
B|----5---7--5---5-----5--------5/7|
G|4/6---6------6---4/6---6---------|
D|---------------------------------|
A|---------------------------------|
E|---------------------------------|

(parte 2)
E|-------------------------5h7-5---|
B|----5---7--5---5-----5--------9-7|
G|4/6---6------6---4/6---6---------|
D|---------------------------------|
A|---------------------------------|
E|---------------------------------|

Bm         D          A     E
Meus pensamentos a chorar
Bm         D                     E   D
Preso no tempo sem chance de voltar

A           E                        F#m
Eu te amo eu te quero mais assim não da
                    D                       A
Nosso caso é consumado e não da pra esperar
                    E                      F#m   (4x)
Você vai ver o que perdeu quando me encontrar
                     D                     A
Nos braços de outro alguém ai cê vai chorar

(solo) A E F#m D

 (parte 1)
E|-------------------------5--4----|
B|----5---7--5---5-----5--------5/7|
G|4/6---6------6---4/6---6---------|
D|---------------------------------|
A|---------------------------------|
E|---------------------------------|

(parte 2)
E|-------------------------5h7-5---|
B|----5---7--5---5-----5--------9-7|
G|4/6---6------6---4/6---6---------|
D|---------------------------------|
A|---------------------------------|
E|---------------------------------|
Composição de Gusttavo / Lima
Colaboração e revisão:
  • Adrielly lima
  • Marcilene Fernandes
  • André Dantas
7.457 exibições
    • ½ Tom
    • A
    • Bb
    • B
    • C
    • Db
    • D
    • Eb
    • E
    • F
    • F#
    • G
    • Ab
  • Adicionar à lista

    0 comentários

    Mostrar mais comentários

    Conseguiu tocar?

    2 Tocaram 0 Ainda não

    Grave um vídeo tocando Caso Consumado e mande pra gente!

    00:00 / 00:00
    outros vídeos desta música
    repetir qualidade Automático
    Outros vídeos desta música
    00:00 / 00:00
    Automático

    Cifra Club Pro

    Aproveite o Cifra Club com benefícios exclusivos e sem anúncios
    7 dias grátis
    Cifra Club Pro
    Aproveite o Cifra Club com benefícios exclusivos e sem anúncios
    7 dias grátis
    OK