Cifra Club

Aprenda

Cast In Stone

Iced Earth

Tab de baixo: Principal
get a 5 string bass and tune down...wont work with a four string bass

F#||-------------------|------------------|-------------------|
C#||-------------------|------------------|-------------------|
G#||-------------------|------------------|-------------------|
D#||--3----------------|------------------|--2----------------|
A#||-------------------|------------------|-------------------|

------------------|-------------------|------------------|-------------------|
------------------|-------------------|------------------|-------------------|
------------------|-------------------|------------------|-------------------|
------------------|--5----------------|------------------|--0----------------|
------------------|-------------------|------------------|-------------------|

------------------||-------------------------|------------------------|
------------------||*------------------------|------------------------|
------------------||-------------------------|------------------------|
------------------||*--3----3--3--3----3--3--|--3----3--3--3----3--3--|
------------------||-------------------------|------------------------|

------------------------|------------------------|------------------------|
------------------------|------------------------|------------------------|
------------------------|------------------------|------------------------|
--2----2--2--2----2--2--|--2----2--2--2----2--2--|--5----5--5--5----5--5--|
------------------------|------------------------|------------------------|

------------------------|------------------------|------------------------||
------------------------|------------------------|-----------------------*||
------------------------|------------------------|------------------------||
--5----5--5--5----5--5--|--0----0--0--0----0--0--|--0----0--0--0----0----*||
------------------------|------------------------|------------------------||

-------------------|------------------|----------------------------|
-------------------|------------------|----------------------------|
-------------------|------------------|----------------------------|
--3----------------|------------------|--3----3--3-3-3--3-3-3--3-3-|
-------------------|------------------|----------------------------|

------------------------------|----------------------------|
------------------------------|----------------------------|
------------------------------|----------------------------|
--3--3-3-3--3-3-3--3-3-3--3-3-|--2----2--2-2-2--2-2-2--2-2-|
------------------------------|----------------------------|

------------------------------|----------------------------|
------------------------------|----------------------------|
------------------------------|----------------------------|
--2--2-2-2--2-2-2--2-2-2--2-2-|--5----5--5-5-5--5-5-5--5-5-|
------------------------------|----------------------------|

------------------------------|---------------------------|
------------------------------|---------------------------|
------------------------------|---------------------------|
--5--5-5-5--5-5-5--5-5-5--5-5-|--0----0--0-0-0--0--0--0-0-|
------------------------------|---------------------------|

-----------------------------||-----------------------------|
-----------------------------||*----------------------------|
-----------------------------||-----------------------------|
--0--0--0--0-0-0--0-0-0--0-0-||*--3----3--3-3-3--3-3-3--3-3-|
-----------------------------||-----------------------------|

------------------------------|----------------------------|
------------------------------|----------------------------|
------------------------------|----------------------------|
--3--3-3-3--3-3-3--3-3-3--3-3-|--2----2--2-2-2--2-2-2--2-2-|
------------------------------|----------------------------|

------------------------------|----------------------------|
------------------------------|----------------------------|
------------------------------|----------------------------|
--2--2-2-2--2-2-2--2-2-2--2-2-|--5----5--5-5-5--5-5-5--5-5-|
------------------------------|----------------------------|

------------------------------|---------------------------|
------------------------------|---------------------------|
------------------------------|---------------------------|
--5--5-5-5--5-5-5--5-5-5--5-5-|--0----0--0-0-0--0--0--0-0-|
------------------------------|---------------------------|

------------------------------||------------------------------|
-----------------------------*||------------------------------|
------------------------------||------------------------------|
--0--0--0--0-0-0--0-0-0--0-0-*||--3--3-3-3--3-3-3--3-3-3--3-3-|
------------------------------||------------------------------|

------------------------------|------------------------------|
------------------------------|------------------------------|
------------------------------|------------------------------|
--3--3-3-3--3-3-3--3-3-3--3-3-|--2--2-2-2--2-2-2--2-2-2--2-2-|
------------------------------|------------------------------|

------------------------------|------------------------------|
------------------------------|------------------------------|
------------------------------|------------------------------|
--2--2-2-2--2-2-2--2-2-2--2-2-|--5--5-5-5--5-5-5--5-5-5--5-5-|
------------------------------|------------------------------|

------------------------------|------------------------------|
------------------------------|------------------------------|
------------------------------|------------------------------|
--5--5-5-5--5-5-5--5-5-5--5-5-|--0--0-0-0--0-0-0--0-0-0--0-0-|
------------------------------|------------------------------|

------------------------------||-----------------------------|
------------------------------||*----------------------------|
------------------------------||-----------------------------|
--0--0-0-0--0-0-0--0-0-0--0-0-||*--3----3--3-3-3--3-3-3--3-3-|
------------------------------||-----------------------------|

------------------------------|----------------------------|
------------------------------|----------------------------|
------------------------------|----------------------------|
--3--3-3-3--3-3-3--3-3-3--3-3-|--2----2--2-2-2--2-2-2--2-2-|
------------------------------|----------------------------|

------------------------------|----------------------------|
------------------------------|----------------------------|
------------------------------|----------------------------|
--2--2-2-2--2-2-2--2-2-2--2-2-|--5----5--5-5-5--5-5-5--5-5-|
------------------------------|----------------------------|

------------------------------|---------------------------|
------------------------------|---------------------------|
------------------------------|---------------------------|
--5--5-5-5--5-5-5--5-5-5--5-5-|--0----0--0-0-0--0--0--0-0-|
------------------------------|---------------------------|

------------------------------||------------------------------|
-----------------------------*||------------------------------|
------------------------------||------------------------------|
--0--0--0--0-0-0--0-0-0--0-0-*||--3--3-3-3--3-3-3--3-3-3--3-3-|
------------------------------||------------------------------|

------------------------------|------------------------------|
------------------------------|------------------------------|
------------------------------|------------------------------|
--3--3-3-3--3-3-3--3-3-3--3-3-|--2--2-2-2--2-2-2--2-2-2--2-2-|
------------------------------|------------------------------|

------------------------------|------------------------------|
------------------------------|------------------------------|
------------------------------|------------------------------|
--2--2-2-2--2-2-2--2-2-2--2-2-|--5--5-5-5--5-5-5--5-5-5--5-5-|
------------------------------|------------------------------|

------------------------------|------------------------------|
------------------------------|------------------------------|
------------------------------|------------------------------|
--5--5-5-5--5-5-5--5-5-5--5-5-|--0--0-0-0--0-0-0--0-0-0--0-0-|
------------------------------|------------------------------|

------------------------------|-------------------|------------------|
------------------------------|-------------------|------------------|
------------------------------|-------------------|------------------|
--0--0-0-0--0-0-0--0-0-0--0-0-|--0----------------|------------------|
------------------------------|-------------------|------------------|

------------------|--5----------------|--9----------------|--4----------------|
------------------|-------------------|-------------------|-------------------|
------------------|--3----------------|--7----------------|--2----------------|
------------------|-------------------|-------------------|-------------------|
------------------|-------------------|-------------------|-------------------|

--7----------------|--9----------------|-------------------|--7----------------|
-------------------|-------------------|--9----------------|-------------------|
--5----------------|--7----------------|-------------------|--5----------------|
-------------------|-------------------|--7----------------|-------------------|
-------------------|-------------------|-------------------|-------------------|

-------------------|--9----------------|-------------------|--7----------------|
--7----------------|-------------------|--9----------------|-------------------|
-------------------|--7----------------|-------------------|--5----------------|
--5----------------|-------------------|--7----------------|-------------------|
-------------------|-------------------|-------------------|-------------------|

-------------------|--9----------------|-------------------|--7----------------|
--7----------------|-------------------|--9----------------|-------------------|
-------------------|--7----------------|-------------------|--5----------------|
--5----------------|-------------------|--7----------------|-------------------|
-------------------|-------------------|-------------------|-------------------|

-------------------|--9----------------|-------------------|--7----------------|
--7----------------|-------------------|--9----------------|-------------------|
-------------------|--7----------------|-------------------|--5----------------|
--5----------------|-------------------|--7----------------|-------------------|
-------------------|-------------------|-------------------|-------------------|

-------------------|--9----------------|-------------------|--7----------------|
--7----------------|-------------------|--9----------------|-------------------|
-------------------|--7----------------|-------------------|--5----------------|
--5----------------|-------------------|--7----------------|-------------------|
-------------------|-------------------|-------------------|-------------------|

-------------------|--9----------------|-------------------|--7----------------|
--7----------------|-------------------|--9----------------|-------------------|
-------------------|--7----------------|-------------------|--5----------------|
--5----------------|-------------------|--7----------------|-------------------|
-------------------|-------------------|-------------------|-------------------|

-------------------|-------------------------------|
--7----------------|-------------------------------|
-------------------|--7--7-7-7--7-7-7-7-7-7-7--7-7-|
--5----------------|-------------------------------|
-------------------|-------------------------------|

-------------------------------|-------------------------------|
-------------------------------|-------------------------------|
-------------------------------|--5--5-5-5--5-5-5-5-5-5-5--5-5-|
--7--7-7-7--7-7-7-7-7-7-7--7-7-|-------------------------------|
-------------------------------|-------------------------------|

--------------------------------|-------------------------------|
--------------------------------|-------------------------------|
--------------------------------|--7--7-7-7--7-7-7-7-7-7-7--7-7-|
--5--5-5-5--5-5-5-5-5-5-5-5-5-5-|-------------------------------|
--------------------------------|-------------------------------|

-------------------------------|-------------------------------|
-------------------------------|-------------------------------|
-------------------------------|--5--5-5-5--5-5-5-5-5-5-5--5-5-|
--7--7-7-7--7-7-7-7-7-7-7--7-7-|-------------------------------|
-------------------------------|-------------------------------|

--------------------------------|--------------------|-------------------|
--------------------------------|--------------------|-------------------|
--------------------------------|--0--------------0--|-------------------|
--5--5-5-5--5-5-5-5-5-5-5-5-5-5-|--------------------|--0----------------|
--------------------------------|--------------------|-------------------|

--------------------|--------------------------------|
--------------------|--------------------------------|
--0--------------0--|--------------12----------------|
--------------------|--12--14--15--------15--14--12--|
--------------------|--------------------------------|

----------------------------|----------------------------|
------------14--------------|----------------------------|
--12----15--------15----12--|------------14--------------|
----------------------------|--12----15--------15----12--|
----------------------------|----------------------------|

----------------------------|----------------------|
------------14----12--------|----------------------|
--12----15--------------15--|--14--------------14--|
----------------------------|----------------------|
----------------------------|----------------------|

----------------------------|----------------------------|
------------14--------------|----------------------------|
--12----15--------15----12--|------------14--------------|
----------------------------|--12----15--------15----12--|
----------------------------|----------------------------|

----------------------------|----------------------|
------------14----12--------|----------------------|
--12----15--------------15--|--14--------------14--|
----------------------------|----------------------|
----------------------------|----------------------|

------------------------------|------------------------------|
----------------------12------|--------12--------12----------|
--12----15--14----15------15--|------------15--------15--14--|
------------------------------|--12--------------------------|
------------------------------|------------------------------|

----------------------------|----------------------|
------------14----12--------|----------------------|
--12----15--------------15--|----------------------|
----------------------------|--12--------------12--|
----------------------------|----------------------|

----------------------------|--------------------------|
------------14----12--------|--------------------------|
--12----15--------------15--|--14--15--14----------14--|
----------------------------|--------------------------|
----------------------------|--------------------------|

----------------------------|----------------------||------------------------|
------------14----12--------|----------------------||*-----------------------|
--12----15--------------15--|----------------------||---0--0--0------0----0--|
----------------------------|--12------------12----||*-----------------------|
----------------------------|----------------------||------------------------|

--------------------|-----------------------|----------------------||
--------------------|-----------------------|---------------------*||
--0--0--------------|-----------------------|----------------------||
--------------------|--0--0--0------0----0--|--0--0--0------------*||
--------------------|-----------------------|----------------------||

-------------------|------------------|-------------------|------------------|
-------------------|------------------|-------------------|------------------|
--0----------------|------------------|--0----------------|------------------|
-------------------|------------------|-------------------|------------------|
-------------------|------------------|-------------------|------------------|

-------------------|------------------|-------------------|------------------|
-------------------|------------------|-------------------|------------------|
-------------------|------------------|--0----------------|------------------|
--0----------------|------------------|-------------------|------------------|
-------------------|------------------|-------------------|------------------|

-------------------|------------------|---------------------------|
-------------------|------------------|---------------------------|
-------------------|------------------|--0----0--0-0-0--0-0-0--0--|
--0----------------|------------------|---------------------------|
-------------------|------------------|---------------------------|

-------------------------|---------------------------|-------------------------|
-------------------------|---------------------------|-------------------------|
------0--0-0-0--0-0-0----|---------------------------|-------------------------|
-------------------------|--0----0--0-0-0--0-0-0--0--|------0--0-0-0--0-0-0----|
-------------------------|---------------------------|-------------------------|

---------------------------|-------------------------|
---------------------------|-------------------------|
--0----0--0-0-0--0-0-0--0--|------0--0-0-0--0-0-0----|
---------------------------|-------------------------|
---------------------------|-------------------------|

---------------------------|-------------------------|
---------------------------|-------------------------|
---------------------------|-------------------------|
--0----0--0-0-0--0-0-0--0--|------0--0-0-0--0-0-0----|
---------------------------|-------------------------|

---------------------------|-------------------------|
---------------------------|-------------------------|
--0----0--0-0-0--0-0-0--0--|------0--0-0-0--0-0-0----|
---------------------------|-------------------------|
---------------------------|-------------------------|

---------------------------|-------------------------|
---------------------------|-------------------------|
---------------------------|-------------------------|
--0----0--0-0-0--0-0-0--0--|------0--0-0-0--0-0-0----|
---------------------------|-------------------------|

---------------------------|-------------------------|
---------------------------|-------------------------|
--0----0--0-0-0--0-0-0--0--|------0--0-0-0--0-0-0----|
---------------------------|-------------------------|
---------------------------|-------------------------|

---------------------------|-------------------------|
---------------------------|-------------------------|
---------------------------|-------------------------|
--0----0--0-0-0--0-0-0--0--|------0--0-0-0--0-0-0----|
---------------------------|-------------------------|

---------------------------|----------------------------|
---------------------------|----------------------------|
--5----5--5-5-5--5-5-5--5--|----5--5--5-5-5--5-5-5--5-5-|
---------------------------|----------------------------|
---------------------------|----------------------------|

---------------------------|----------------------------|
---------------------------|----------------------------|
--1----1--1-1-1--1-1-1--1--|----1--1--1-1-1--1-1-1--1-1-|
---------------------------|----------------------------|
---------------------------|----------------------------|

---------------------------|----------------------------|
---------------------------|----------------------------|
--3----3--3-3-3--3-3-3--3--|----3--3--3-3-3--3-3-3--3-3-|
---------------------------|----------------------------|
---------------------------|----------------------------|

---------------------------|-----------------------|---------------------------|
---------------------------|-----------------------|---------------------------|
--0----0--0-0-0--0-0-0--1--|----3--1--0--5----3----|--5----5--5-5-5--5-5-5--5--|
---------------------------|-----------------------|---------------------------|
---------------------------|-----------------------|---------------------------|

----------------------------|---------------------------|
----------------------------|---------------------------|
----5--5--5-5-5--5-5-5--5-5-|--1----1--1-1-1--1-1-1--1--|
----------------------------|---------------------------|
----------------------------|---------------------------|

----------------------------|---------------------------|
----------------------------|---------------------------|
----1--1--1-1-1--1-1-1--1-1-|--3----3--3-3-3--3-3-3--3--|
----------------------------|---------------------------|
----------------------------|---------------------------|

----------------------------|---------------------------|
----------------------------|---------------------------|
----3--3--3-3-3--3-3-3--3-3-|--0----0--0-0-0--0-0-0--1--|
----------------------------|---------------------------|
----------------------------|---------------------------|

-----------------------|------------------------------|
-----------------------|------------------------------|
----3--1--0--5----3----|------------------------------|
-----------------------|--3--3-3-3--3-3-3--3-3-3--3-3-|
-----------------------|------------------------------|

------------------------------|------------------------------|
------------------------------|------------------------------|
------------------------------|------------------------------|
--3--3-3-3--3-3-3--3-3-3--3-3-|--2--2-2-2--2-2-2--2-2-2--2-2-|
------------------------------|------------------------------|

------------------------------|------------------------------|
------------------------------|------------------------------|
------------------------------|------------------------------|
--2--2-2-2--2-2-2--2-2-2--2-2-|--5--5-5-5--5-5-5--5-5-5--5-5-|
------------------------------|------------------------------|

------------------------------|------------------------------|
------------------------------|------------------------------|
------------------------------|------------------------------|
--5--5-5-5--5-5-5--5-5-5--5-5-|--0--0-0-0--0-0-0--0-0-0--0-0-|
------------------------------|------------------------------|

-------------------------------||-------------------------------------------|
-------------------------------||*------------------------------------------|
----------------3----2----0----||-------------------------------------------|
--0--0-0-0--0-0----------------||*--2--2-2-2--2--2-2-2--2--2-2-2--2--2-2-2--|
-------------------------------||-------------------------------------------|

------------------------------------|------------------------------------------|
------------------------------------|------------------------------------------|
------------------------------------|------------------------------------------|
--2--2-2-2--2--2-2-2--3------0------|--0--0-0-0--0--0-0-0--0--0-0-0--0--0-0-0--|
------------------------------------|------------------------------------------|

2x 
-------------------------------------||--------------------|
------------------------------------*||*--4----------------|
-------------------------------------||--------------------|
--0--0-0-0--0--0-0-0--1-------------*||*--2----------------|
-----------------------------3-------||--------------------|

----------------------------|-------------------|-----------------------------||
--------------7------4------|--2----------------|--------------7------2------*||
----------------------------|-------------------|-----------------------------||
--------------5------2------|--0----------------|--------------5------0------*||
----------------------------|-------------------|-----------------------------||

-------------------|----------------------|-------------------|
-------------------|----------------------|-------------------|
-------------------|----------------------|-------------------|
-------------------|----------------------|-------------------|
--7----------------|----------7/-3--3/-5--|--5----------------|

----------------------|-------------------|----------------------|
----------------------|-------------------|----------------------|
----------------------|-------------------|----------------------|
----------------------|-------------------|----------------------|
----------3/-5--5/-7--|--7----------------|----------7/-3--3/-5--|

-------------------|----------------------|-------------------|
-------------------|----------------------|-------------------|
-------------------|----------------------|-------------------|
-------------------|----------------------|-------------------|
--5----------------|----------3/-5--5/-7--|--7----------------|

----------------------|-------------------|----------------------|
----------------------|-------------------|----------------------|
----------------------|-------------------|----------------------|
----------------------|-------------------|----------------------|
----------7/-3--3/-5--|--5----------------|----------3/-5--5/-7--|

-------------------|----------------------|-------------------|
-------------------|----------------------|-------------------|
-------------------|----------------------|-------------------|
-------------------|----------------------|-------------------|
--7----------------|----------7/-3--3/-5--|--5----------------|

--------------------|-------------------|------------------||
--------------------|-------------------|------------------||
--------------------|-------------------|------------------||
----------5----0----|--2----------------|------------------||
--------------------|-------------------|------------------||
Composição de Dave Abell / Jon Schaffer / Matthew Barlow / Randall Shawver
Colaboração e revisão:
  • Taino Vieira
65 exibições

0 comentários

Ver todos os comentários

Conseguiu tocar?

0 Tocaram 0 Ainda não

Grave um vídeo tocando Cast In Stone e nos envie!

00:00 / 00:00
outros vídeos desta música
repetir qualidade Automático
Outros vídeos desta música
00:00 / 00:00
Automático

Cifra Club Pro

Aproveite o Cifra Club com benefícios exclusivos e sem anúncios
Cifra Club Pro
Aproveite o Cifra Club com benefícios exclusivos e sem anúncios
OK