Cifra Club

Aprenda

Bem Perto (part. Isadora Pompeo)

Isaías Saad

Cifra: Principal (violão e guitarra)
tom: B
[Intro] E7M(9)  B9  E7M(9)  B9

E|---------------------------------------------|
B|---------------------------------------------|
G|-----------6-8-------------------6-8----9-8--|
D|---6-8-9------9-6-------6-8-9------9------9--|
A|--------------------9-6----------------------|
E|---------------------------------------------|

[Primeira Parte]

E9
  Te vi chegando perto 
                        B9
Me apaixonei por Seu olhar
E9
  Mesmo em meus pecados
                    B9
Você chegou para me abraçar
E9
  Mesmo em meus fracassos
                   B9
Você acreditou em mim 
E9
  E eu vi em Seus olhos 
                     B9
Que a Sua graça não tem fim

[Pré-Refrão]

 E9
Sinto o Teu amor 
           B9
Fluindo aqui
 E9
Vejo o Teu amor
          B9
Mover em mim 

[Refrão]

   B9
O Teu amor chegou e deu 
    D#m7
Sentido a minha vida
        E7M
E hoje não sou mais igual
   E7M
Você habita em mim
 B9
Sei que nada poderá
    D#m
Me separar da graça que
   E9
Eu encontrei em Ti
     G#m            F#     E9
Pra sempre em Teu amor, estou

[Primeira Parte]

E9
  Te vi chegando perto 
                        B9
Me apaixonei por Seu olhar
E9
  Mesmo em meus pecados
                    B9
Você chegou para me abraçar
E9
  Mesmo em meus fracassos
                   B9
Você acreditou em mim 
E9
  E eu vi em Seus olhos 
                     B9
Que a Sua graça não tem fim

[Pré-Refrão]

 E9
Sinto o Teu amor 
           B9
Fluindo aqui
 E9
Vejo o Teu amor
          B9
Mover em mim 

[Refrão]

   B9
O Teu amor chegou e deu 
    D#m7
Sentido a minha vida
        E7M
E hoje não sou mais igual
   E7M
Você habita em mim
 B9
Sei que nada poderá
    D#m
Me separar da graça que
   E9
Eu encontrei em Ti
     G#m            F#     E9
Pra sempre em Teu amor, estou

[Ponte]

E9
  Seguro estou em Ti
F#
  Só quero estar aqui
G#m
  Bem perto de Você
D#m
  Bem perto de Você

E9
  Seguro estou em Ti
F#
  Só quero estar aqui
G#m
  Bem perto de Você
D#m
  Bem perto de Você

[Solo] E  F#  G#m  B/D# 
       E  F#  G#m  B/D# 

E|-----------------------------------|
B|-------11/12-11--------------------|
G|-------------------11-11-8-8-------|
D|--9-9--------------------------9-9-|
A|-----------------------------------|
E|-----------------------------------|

E|-----------------------------------|
B|-11/12-11--------------------------|
G|------------11-11-8-8--------------|
D|-----------------------------------|
A|-----------------------------------|
E|-----------------------------------|
                  
E|-----------------------------------|
B|-------11/12-11--------------------|
G|-------------------11-11-8-8-------|
D|--9-9------------------------------|
A|-----------------------------------|
E|-----------------------------------|

E|-----------------------------------|
B|-14/16-14-12/14-14/16-14-12/14-16--|
G|-----------------------------------|
D|-----------------------------------|
A|-----------------------------------|
E|-----------------------------------|
                             
E|------------------14---------------|
B|----------14/16-----16-16-14-14----|
G|--16-16----------------------------|
D|-----------------------------------|
A|-----------------------------------|
E|-----------------------------------|
                            
E|-----------------14-16-16----------|
B|----------14/16-------------16-16--|
G|-16-16-----------------------------|
D|-----------------------------------|
A|-----------------------------------|
E|-----------------------------------|

E|------------------14---------------|
B|----------14/16-----16-16-14-14-12-|
G|--16-16----------------------------|
D|-----------------------------------|
A|-----------------------------------|
E|-----------------------------------|
 
[Refrão]

   B9
O Teu amor chegou e deu 
    D#m7
Sentido a minha vida
        E7M
E hoje não sou mais igual
   E7M
Você habita em mim
 B9
Sei que nada poderá
    D#m
Me separar da graça que
   E9
Eu encontrei em Ti
     G#m            F#     E9
Pra sempre em Teu amor, estou

( E9  F#  G#m  D#m )

[Final] E9  F#  G#m  F#
Colaboração e revisão:
  • Leonardo Kappaun
  • Gabriel Silva
  • Arthur Costa
1.483 exibições
    • ½ Tom
    • A
    • Bb
    • B
    • C
    • Db
    • D
    • Eb
    • E
    • F
    • F#
    • G
    • Ab
  • Adicionar à lista

    0 comentários

    Ver todos os comentários

    Conseguiu tocar?

    0 Tocaram 0 Ainda não

    Grave um vídeo tocando Bem Perto (part. Isadora Pompeo) e nos envie!

    00:00 / 00:00
    outros vídeos desta música
    repetir qualidade Automático
    Outros vídeos desta música
    00:00 / 00:00
    Automático

    Cifra Club Pro

    Aproveite o Cifra Club com benefícios exclusivos e sem anúncios
    Cifra Club Pro
    Aproveite o Cifra Club com benefícios exclusivos e sem anúncios
    OK