Cifra Club

Aprenda

I Hate Myself For Loving You

Joan Jett

Cifra: Principal (violão e guitarra)
Tom: G
Riff principal  x2:
E|----------------------------------------------------|
B|----------------------------------------------------|
G|-9-9-9--9/12--9--7--7-9--9---------------------9--9-|
D|-9-9-9--9/12--9--7--7-9--9---------------------9--9-|
A|-7-7-7--7/10--7--5--5-7--7--5--5-5---5-5-5---5-7--7-|
E|-----------------------------------7-------7--------|
 |
E|----------------------------------------------------|
B|----------------------------------------------------|
G|-9-9-9--9/12--9--7--7-9--9---------------------9--9-|
D|-9-9-9--9/12--9--7--7-9--9---------------------9--9-|
A|-7-7-7--7/10--7--5--5-7--7--5--5-5---5-5-5---5-7--7-|
E|-----------------------------------7-------7--------|

Verso 1 x1:
E|--------------------------------------------------------------------------|
B|--------------------------------------------------------------------------|
G|-----9--------------9-9---------------------------------------------------|
D|-----9--------------9-9-7-7--------------7-7-/9-9------------------2------|
A|---5-7--------------7-7-7-7--------------7-7-/9-9----------------5-2------|
E|-7----------------------5-5--------------5-5-/7-7--------------7---0------|
 |
E|--------------------------------------------------------------------------|
B|--------------------------------------------------------------------------|
G|-----9--------------9-9--------------------------------------------9------|
D|-----9--------------9-9-7-7--------------7-7-/9-9------------------9------|
A|-----7--------------7-7-7-7--------------7-7-/9-9------------------7------|
E|------------------------5-5--------------5-5-/7-7-------------------------|

E|---------------------------|
B|---------------------------|
G|---------------------------|
D|-----7-7----------7-7-/9-9-|
A|-----7-7---7--7---7-7-/9-9-|
E|-0-0-5-5---5--5---5-5-/7-7-|
 |
E|---------------------------|
B|---------------------------|
G|-9-9-----------------------|
D|-9-9-7-7----------7-7-/9-9-|
A|-7-7-7-7----------7-7-/9-9-|
E|-----5-5----------5-5-/7-7-|

pre-refrão x1:
E|----------------------------------------------------------------------|
B|----------------------------------------------------------------------|
G|----------------------------------------------------------------------|
D|-555--------------777--------------555--------------777---------------|
A|-555--5-5-5-5-5-5-777--7-7-7-7-7-7-555--5-5-5-5-5-5-777--7-7-7-7-7-7--|
E|-333--3-3-3-3-3-3-555--5-5-5-5-5-5-333--3-3-3-3-3-3-555--5-5-5-5-5-5--|
 |      x x x x x x      x x x x x x      x x x x x x      x x x x x x
E|----------------------------------------------------------------------|
B|----------------------------------------------------------------------|
G|----------------------------------------------------------------------|
D|-5-------------7-------------5-------------7--------------------------|
A|-5-------------7-------------5-------------7--------------------------|
E|-3-------------5-------------3-------------5--------------------------|

E|---------------------------------|
B|---------------------------------|
G|---------------------------------|
D|---------------------------------|
A|-9-9-9-9-9-9-9-9-9-9-9-9-9-9-9-9-|
E|-7-7-7-7-7-7-7-7-7-7-7-7-7-7-7-7-|
|  x x x x x x x x x x x x x x x x


E|-7h7^(8)p7h7^(8)7h7^(8)p7h7^(8)7h7^(8)p7h7^(8)7h7^(8)p7h7^(8)-|
B|--------------------------------------------------------------|
G|--------------------------------------------------------------|
D|--------------------------------------------------------------|
A|--------------------------------------------------------------|
E|--------------------------------------------------------------|

Refrão:
E|---------------------------------------------------------------------------|
B|---------------------------------------------------------------------------|
G|-9-------9--9-------9-9----------------------------------------------------|
D|-9-------9--9-------9-9-7-7-------7--7-------7-7-/9-9-------9--9-------9-9-|
A|-7-7-7-7-7--7-7-7-7-7-7-7-7-------7--7-------7-7-/9-9-------9--9-------9-9-|
E|------------------------5-5-5-5-5-5--5-5-5-5-5-5-/7-7-7-7-7-7--7-7-7-7-7-7-|
 |   x x x      x x x         x x x      x x x          x x x      x x x
E|---------------------------------------------------------------------------|
B|---------------------------------------------------------------------------|
G|-9-------9--9-------9-9----------------------------------------------------|
D|-9-------9--9-------9-9-7-7-------7--7-------7-7-/9-9-------9--9-------9-9-|
A|-7-------7--7-------7-7-7-7-------7--7-------7-7-/9-9-------9--9-------9-9-|
E|------------------------5-5-------5--5-------5-5-/7-7-------7--7-------7-7-|

E|-------------------------|
B|-------------------------|
G|-------------------------|
D|-9-2---------------------|
A|-9-2-------7-----9-7-----|
E|-7-0---5h7---5h7-----3-0-|
 |
E|-------------------------|
B|-------------------------|
G|-------------------------|
D|-9-2---------------------|
A|-9-2---------------------|
E|-7-0---------------------|

Riff principal 2 x2
E|------------------------------------------------------|
B|------------------------------------------------------|
G|-9-9-9--9/12--9--7--7-9--9----------------------------|
D|-9-9-9--9/12--9--7--7-9--9----------------------------|
A|-7-7-7--7/10--7--5--5-7--7--5--5-5---5-5-5---5-2p0----|
E|-----------------------------------7-------7------3-0-|
 |
E|----------------------------------------------------|
B|----------------------------------------------------|
G|-9-9-9--9/12--9--7--7-9--9---------------------9--9-|
D|-9-9-9--9/12--9--7--7-9--9---------------------9--9-|
A|-7-7-7--7/10--7--5--5-7--7--5--5-5---5-5-5---5-7--7-|
E|-----------------------------------7-------7--------|


Verso 2 x1:
E|--------------------------------------------------------------------------|
B|--------------------------------------------------------------------------|
G|-----9--------------9-9---------5^----------------------------------------|
D|-----9--------------9-9-7-7---7----7-5-7-7-7-/9-9------------------2------|
A|---5-7--------------7-7-7-7--------------7-7-/9-9----------------5-2------|
E|-7----------------------5-5--------------5-5-/7-7--------------7---0------|
 |
E|--------------------------------------------------------------------------|
B|--------------------------------------------------------------------------|
G|-----9--------------9-9--------------------------------------------9------|
D|-----9--------------9-9-7-7--------------7-7-/9-9------------------9------|
A|-----7--------------7-7-7-7--------------7-7-/9-9------------------7------|
E|------------------------5-5--------------5-5-/7-7-------------------------|

E|------------------------------------------|
B|---5--------------------------------------|
G|3h4-2-0-----------------------------------|
D|-------2p0-----------------------7-7-/9-9-|
A|----------2-0---7----------------7-7-/9-9-|
E|--------------3-5----------------5-5-/7-7-|
 |                                          |
E|------------------------------------------|
B|------------------------------------------|
G|------------------------------------------|
D|---------9-7-5-7-----------------7-7-/9-9-|
A|---------9-7-5-7-----------------7-7-/9-9-|
E|---------7-5-3-5-----------------5-5-/7-7-|

pre-refrão 2:
E|----------------------------------------------------------------------|
B|----------------------------------------------------------------------|
G|----------------------------------------------------------------------|
D|-555--------------777--------------555--------------777---------------|
A|-555--5-5-5-5-5-5-777--7-7-7-7-7-7-555--5-5-5-5-5-5-777--7-7-7-7-7-7--|
E|-333--3-3-3-3-3-3-555--5-5-5-5-5-5-333--3-3-3-3-3-3-555--5-5-5-5-5-5--|
 |      x x x x x x      x x x x x x      x x x x x x      x x x x x x
E|----------------------------------------------------------------------|
B|----------------------------------------------------------------------|
G|----------------------------------------------------------------------|
D|-5-------------7-------------5-------------7--------------------------|
A|-5-------------7-------------5-------------7--------------------------|
E|-3-------------5-------------3-------------5--------------------------|

E|-7h7^(8)p7h7^(8)7h7^(8)p7h7^(8)7h7^(8)p7h7^(8)7h7^(8)p7h7^(8)-|
B|--------------------------------------------------------------|
G|--------------------------------------------------------------|
D|--------------------------------------------------------------|
A|--------------------------------------------------------------|
E|--------------------------------------------------------------|
 |
E|-7h7^(8)p7h7^(8)7h7^(8)p7h7^(8)7h7^(8)p7h7^(8)7h7^(8)p7h7^(8)-|
B|--------------------------------------------------------------|
G|--------------------------------------------------------------|
D|--------------------------------------------------------------|
A|--------------------------------------------------------------|
E|--------------------------------------------------------------|


refrão x1


solo:
E|------------------------------------------------------------|
B|------------------------------------------------------------|
G|------------------------------------------------------------|
D|-----0-------------2-----5^--5^-----------------------5^----|
A|-0h2-----------5-----------------7-5^-------------7---------|
E|---------0--/7--/3---0-0-------------7\5-3-5p3^p0-----------|

E|-----------------7-7-------------------------10--10------10--|
B|-------------8^8^----8^8^---------------/12--12--12-/12--12--|
G|-----7---7-9-7^7^----7^7^9p7-----7---9-----------------------|
D|-8/9---9---------------------9-------------------------------|
A|-------------------------------------------------------------|
E|-------------------------------------------------------------|

E|------12----10----9-----7-9h7---------------------------------|
B|-13h14---12----10---8h9-------8^8-----------------------------|
G|----------------------------------9p7---7-7^-------------9~---|
D|--------------------------------------9------9p7-5-7-5^-------|
A|-------------------------------------------------------7------|
E|--------------------------------------------------------------|

pre-refrão x1
refrão x1

E|--------------------------------------------------------------------------|
B|--------------------------------------------------------------------------|
G|--------------------------------------------------------------------------|
D|--------------------------------------------------------------------------|
A|-5h7p5h7(manter esse curso................................................)
E|--------------------------------------------------------------------------|
 |
E|--------------------------------------------------------------------------|
B|--------------------------------------------------------------------------|
G|--------------------------------------------------------------------------|
D|------------------------------------------------------------------------\-|
A|------------------------------------------------------------------------\-|
E|--------------------------------------------------------------------------|

refrão x1

Riff principal 3 (solando sobre ele)


 /  slide up
 \  slide down
 h  hammer-on
 p  pull-off
 ~  vibrato
 +  harmonic
 x  Mute
Composição de Joan Jett / Sérgio Bittencourt
Colaboração e revisão:
  • Kevin Fernando
  • Caio Roberto
22.415 exibições
    • ½ Tom
    • A
    • Bb
    • B
    • C
    • Db
    • D
    • Eb
    • E
    • F
    • F#
    • G
    • Ab
  • Adicionar à lista

    0 comentários

    Mostrar mais comentários

    Conseguiu tocar?

    15 Tocaram 0 Ainda não

    Grave um vídeo tocando I Hate Myself For Loving You e mande pra gente!

    00:00 / 00:00
    outros vídeos desta música
    repetir qualidade Automático
    Outros vídeos desta música
    00:00 / 00:00
    Automático

    Cifra Club Pro

    Aproveite o Cifra Club com benefícios exclusivos e sem anúncios
    7 dias grátis
    Cifra Club Pro
    Aproveite o Cifra Club com benefícios exclusivos e sem anúncios
    7 dias grátis
    OK