Notificações Amigos pendentes

      João Carreiro e Capataz

      Papel em Branco

      30.933 exibições
      Tom: C
      Intro: C  G  Am  F
      
      [Solo Intro - alterna parte 1 e parte 2]
      
      parte 1
      
      |-------------------|
      |---------6/8-6-5---|
      |-5/7-5-7---------7-|
      |-------------------|
      |-------------------|
      |-------------------|
      
      
      parte 2
      
      |---------------------|
      |---------6/8-6-5-----|
      |-5/7-5-7---------7-5-|
      |---------------------|
      |---------------------|
      |---------------------|
      
      
      final
      
      |--------------------|
      |--------------------|
      |-5/7-5-7/10-7h9p7-5-|
      |--------------------|
      |--------------------|
      |--------------------|
      
      
      riff 1
      
      |------------------|
      |-8p6-6-5h6--------|
      |-----------5------|
      |------------------|
      |------------------|
      |------------------|
      
      
      riff 2
      
      
      |------------------|
      |-------8/10/8-----|
      |-7/9/7------------|
      |------------------|
      |------------------|
      |------------------|
      
      
      C                Em                   F                  G
      Venho aqui te propor uma historia de amor que seja sem fim
      F                  C          D7            G
      Quero te doar meu coração se você quiser assim
      F                C                    D             G              C
      Minha intenção e te fazer feliz e por isso é o que basta pra mim
      C                 Em                   F                 G
      Venho aqui te provar que eu posso te dar um paraíso de amor
      F                    C                D7                  G
      Um mundo cheio de carinho, onde o espinho sede lugar a flor
      F                    C                D             G       C
      Em nome desse amor e desse querer eu faço o que preciso for
      C                    Em                F             C
      Não quero ser a estrela, que vive brilhando em seu céu
      F                  C                        D7               G
      Quero ser apenas a flor desabrocha para o cuitelo roubar o mel
      F               C                  D         G      C
      Venho me doar inteiro a você como uma folha de papel
      C                        G
      Sou seu papel em branco escreva em mim o que desejar
      F                 C                  D7               G
      Rasure, apague e comece outra vez se acaso você errar
      C                         G
      Nossa historia você escreve e eu aceito o que você compor
      F                    C                      D         G                         C
      Pois sendo contigo eu tenho a certeza que será a mais linda historia de amor

      Comentários 0

      140 .
      140 cancelar

      conseguiu tocar?

      covers

      Grave um vídeo tocando Papel em Branco e mande pra gente!

      Ex.: http://www.youtube.com/watch?v=0IvSvIwGdwk
      ver covers de outras músicas »
      0:00 / 0:00

      Capítulos

        2 versões de violão dificuldade exibições contribuição e correção
        2 versões de guitarra dificuldade exibições contribuição e correção
        2 versões de cavaco dificuldade exibições contribuição e correção
        2 versões de teclado dificuldade exibições contribuição e correção
        play/pausefechar subir/descer velocidade
        6ª corda E5ª corda A4ª corda D3ª corda G2ª corda B1ª corda E
          acordes
          publicidade
          fechar
          ok