Cifra Club

Aprenda

O Sol

Jota Quest

Tab de baixo: Versão 2
Introdução 
G|------------------------------------------------------------------------|
D|------------------------4--------------4--5--5--4-----------------------|
A|-----------------4-5-7----7-x-7-x7--7--------------7---5------x5--x5----|
E|-5-0-3-5-3-5------------------------------------------------------------|



 Versos
G|-------------------------------------------------------------|
D|-------------------------------------------------------------|
A|------------------7---7--7-----------------------5--5--5-----|
E|-5-0-3-5-3-5--5-7---5---5---0-2-3-0-3--0-3---3-5---3--3------|


G|-------------------------------------------------------------|
D|-------------------------------------------------------------|
A|--------------------7---7--7---------------------5-----5--5--|
E|3-4-5-0-3-5-3-5--5-7---5--5----0-2-3-0-3--0-3---3-5---3--3---|

Refrão
G|--------------------------------------------------|
D|--------------------------------------------------|
A|-------------7-x-7-x-7---5-x5-4-------------------|
E|-5-0-3-5-3-5---------------------7-5-x5-x5-5-5----|(2X)
Composição de Antônio Julio Nastácia
Colaboração e revisão:
  • Bruno Anjos
17.556 exibições

0 comentários

Ver todos os comentários

Conseguiu tocar?

0 Tocaram 0 Ainda não

Grave um vídeo tocando O Sol e nos envie!

00:00 / 00:00
Outros vídeos desta música
Repetir Qualidade Automático
Outros vídeos desta música
00:00 / 00:00
Automático

Cifra Club Pro

Aproveite o Cifra Club com benefícios exclusivos e sem anúncios
Cifra Club Pro
Aproveite o Cifra Club com benefícios exclusivos e sem anúncios
OK