Cifra Club

Aprenda

Worth Fighting For

Judas Priest

Cifra: Principal (violão e guitarra)
tom: G
INTRO ( Coloquei a intro feita na guitarra pra dar uma improvisada caso seja tocado no violão)

|Guitar 1 Glenn Tipton
|
|----------------------------------------------------------|
|----------------------------------------------------------|
|--------------------0------0---------0--------------------|
|--------2---------2------0---------0-------7--------------|
|----0h2-----0-2-3------2---------2------/5----0h2---0-----|
|-0-----------------------------3------------------0---3-2-|
|
|Guitar 2 KK Downing 
|
|----------------------------------------------------------|
|----------------------------------------------------------|
|----------------------------------------------------------|
|----------------------------------------------------------|
|----------------------------------------------------------|
|----------------------------------------------------------|


|Guitar 1 
|
|----------------------------------------------------------|
|----------------------------------------------------------|
|--------------------0------0---------0--------------------|
|--------2---------2------0---------0-------7--------------|
|----0h2-----0-2-3------2---------2------/5----0h2---0-----|
|-0-----------------------------3------------------0---3-2-|
|
|Guitar 2 
| Em               Cadd9  G/B   G5        D5
|-0----------------3------3-----3---------2----------------|
|-0----------------3------3-----3---------3----------------|
|-0----------------0------0-----0---------2----------------|
|-2----------------x------0-----0---------0----------------|
|-2----------------3------2-----x--------------------------|
|-0-----------------------------3--------------------------|


|Guitar 1 
|
|----------------------------------------------------------|
|----------------------------------------------------------|
|----------------------------------------------------------|
|-2--------------------------------------------------------|
|-2--------------------------------------------------------|
|-0--------------------------------------------------------|
|
|Guitar 2 
|
|--------10--------10----------------10--------10----------|
|---12--------12----------------12--------12---------------|
|/9----9----9----9----9-7h9--/9----9----9----9----9-7h9----|
|----------------------------------------------------------|
|----------------------------------------------------------|
|----------------------------------------------------------|


Em               C    
You said I could never find 
C                  Am
a way to ease your mind
Em                      C              Am
That where I'd go you'd wind up in the dust
Em                 C
I tried so hard to have you reach
C               Am
another side of me
Em                  C           Am
Instead you went to nowhere and forgot

[Chorus]
Em          C
So I wander on
G                D
Asking where you might have gone
Em                 C
From what I knew before
G                     D            C Am Em
Some things are worth fighting for

Em              C
Desert heat can wear you down
C                     Am
But still I'm rollin' through
Em             C             Am
Did I see your figure in the haze?
Em          C
I am driven by a thirst
C                   Am
to quench myself of love
Em                  C                  Am
The sun beats on me for the price I've paid

[Chorus]
Em          C
So I wander on
G                D
Asking where you might have gone
Em                 C
From what I knew before
G                     D            C    Am
Some things are worth fighting for yeah

Em C C Am Em 

C                   Am           Em
Night road leads me to a town of ghosts
G               C             Am         Em
Beckoned by the glow of kerosone & tumbleweed
C               Em
They're calling out (they're calling out)
C         Em
Forever more (forever more)
C     D        Em
Worth fighting for!

[Chorus]
Em                 C
I'm leaning in the wind
G                    D
Head bowed down from what I saw
Em              C
My shadow for a friend
      G                     D           
Still some things 're worth fighting for

Em            C
So I'm moving on
G                D
Asking where you might have gone
Em                 C
From what I knew before
G                     D            C      Am 
Some things are worth fighting for yeah...

C Am C Am

C     D        Em
Worth fighting for!

Composição de Glenn Tipton / Håkan Lundqvist / K.K. Downing
Colaboração e revisão:
  • Filipe
5.824 exibições
    • ½ Tom
    • A
    • Bb
    • B
    • C
    • Db
    • D
    • Eb
    • E
    • F
    • F#
    • G
    • Ab
  • Adicionar à lista

    0 comentários

    Ver todos os comentários

    Conseguiu tocar?

    1 Tocaram 0 Ainda não

    Grave um vídeo tocando Worth Fighting For e nos envie!

    00:00 / 00:00
    Outros vídeos desta música
    Repetir Qualidade Automático
    Outros vídeos desta música
    00:00 / 00:00
    Automático

    Cifra Club Pro

    Aproveite o Cifra Club com benefícios exclusivos e sem anúncios
    Cifra Club Pro
    Aproveite o Cifra Club com benefícios exclusivos e sem anúncios
    OK