Cifra Club

Teorema

Legião Urbana

Tab de baixo: Principal
[Intro]

G|------------------------------------------------------------------|
D|---------------5-4------------------5-4------------------5-444444-|
A|--0-0-0--0-0-0----------0-0-0--0-0-0-------0-0-0--0-0-0-----------|
E|------------------------------------------------------------------|

[1° Parte]

G|-2-2-2--2-2-2------------------0-0-0--0-0-0-----------------------|
D|---------------0-0-0--0-0-0--------------------0-0-0--0-0-0-------|
A|------------------------------------------------------------------|
E|------------------------------------------------------------------|

G |-2-2-2--2-2-2------------------0-0-0--0-0-0-----------------------|
D |---------------0-0-0--0-0-0--------------------0-0-0--0-0-0-------|
A |------------------------------------------------------------------|
E |------------------------------------------------------------------|

[2° Parte]

G|------------------------------------------------------------------|
D|---------------2-2-2-2-2-2-----------------0-0-0-0-0-0------------|
A|-2-2-2-2-2-2------------------------------------------------------|
E|-----------------------------2-2-2-2-2-2--------------------------|

G|-----------------------------------------------------|
D|-2-2-2-2-2-2-------------2-2-2-2-2-2---4-4-4-4-4-4---|
A|-------------2-2-2-2-2-2-----------------------------|
E|-----------------------------------------------------|

G|-------------------------------------------------------|
D|-0-0-0-0-0-0-2-2-2-2-2-2-------------------------------|
A|-------------------------------------------------------|
E|-------------------------------------------------------|

[Intro]

G|------------------------------------------------------------------|
D|---------------5-4------------------5-4---------------------------|
A|-0-0-0--0-0-0----------0-0-0--0-0-0-------0-0-0--0-0-0------------|
E|------------------------------------------------------------------|

[1° Parte]

G|-------------------------------0-0-0--0-0-0-----------------------|
D|---------------0-0-0--0-0-0--------------------0-0-0--0-0-0-------|
A|-0-0-0--0-0-0-----------------------------------------------------|
E|------------------------------------------------------------------|

G|-2-2-2--2-2-2------------------0-0-0--0-0-0-----------------------|
D|---------------0-0-0--0-0-0--------------------0-0-0--0-0-0-------|
A|------------------------------------------------------------------|
E|------------------------------------------------------------------|

[2° Parte]

G|------------------------------------------------------------------|
D|---------------2-2-2-2-2-2-----------------0-0-0-0-0-0------------|
A|-2-2-2-2-2-2------------------------------------------------------|
E|-----------------------------2-2-2-2-2-2--------------------------|

G|-----------------------------------------------------|
D|-2-2-2-2-2-2-------------2-2-2-2-2-2---4-4-4-4-4-4---|
A|-------------2-2-2-2-2-2-----------------------------|
E|-----------------------------------------------------|

G|-------------------------------------------------------|
D|-0-0-0-0-0-0-2-2-2-2-2-2-------------------------------|
A|-------------------------------------------------------|
E|-------------------------------------------------------|

[Intro]

G|------------------------------------------------------------------|
D|---------------5-4------------------5-4---------------------------|
A|-0-0-0--0-0-0----------0-0-0--0-0-0-------0-0-0--0-0-0------------|
E|------------------------------------------------------------------|

[1° Parte]

G|-------------------------------0-0-0--0-0-0-----------------------|
D|---------------0-0-0--0-0-0--------------------0-0-0--0-0-0-------|
A|-0-0-0--0-0-0-----------------------------------------------------|
E|------------------------------------------------------------------|

G|-2-2-2--2-2-2------------------0-0-0------------------------------|
D|---------------0-0-0--0-0-0--------------------0-0-0--0-0-0-------|
A|------------------------------------------------------------------|
E|--------------------------------------3-3-3-----------------------|

[2° Parte]

G|------------------------------------------------------------------|
D|---------------2-2-2-2-2-2-----------------0-0-0-0-0-0------------|
A|-2-2-2-2-2-2------------------------------------------------------|
E|-----------------------------2-2-2-2-2-2--------------------------|

G|-----------------------------------------------------|
D|-2-2-2-2-2-2-------------2-2-2-2-2-2---4-4-4-4-4-4---|
A|-------------2-2-2-2-2-2-----------------------------|
E|-----------------------------------------------------|

G|-------------------------------------------------------|
D|-0-0-0-0-0-0-2-2-2-2-2-2-------------------------------|
A|-------------------------------------------------------|
E|-------------------------------------------------------|

[Final]

G|------------------------------------------------------------------|
D|---------------5-4------------------5-4---------------------------|
A|--0-0-0--0-0-0----------0-0-0--0-0-0-------0-0-0--0-0-0-----------|
E|------------------------------------------------------------------|

G|------------------------------------------------------------------|
D|------------------------------------------------------------------|
A|--000000----------------------------------------------------------|
E|------------------------------------------------------------------|
00:00 / 00:00
Outros vídeos desta música
Repetir
Outros vídeos desta música
Composição de Dado Villa-Lobos / Marcelo Bonfá / Renato Russo
Colaboração e revisão:
  • luis carvalho
  • Cauê Coutinho
  • Rafael Morais
1.559 exibições

0 comentários

Ver todos os comentários

Entre para oCifra Club PRO

Tenha acesso a benefícios exclusivos no App e no Site

  • Chega de anúncios

  • Prioridade de compra em lançamentos

  • Mais recursos no app do Afinador

  • Atendimento Prioritário

  • Descontos nos produtos Cifra Club

  • Ajude a produzir mais conteúdo

00:00 / 00:00

Cifra Club Pro

Aproveite o Cifra Club com benefícios exclusivos e sem anúncios
Cifra Club Pro
Aproveite o Cifra Club com benefícios exclusivos e sem anúncios
OK