Cifra Club

No llores mas por mí

Los Suaves

Cifra: Principal (violão e guitarra)
tom: C
E|-8h10-10h12-10h12-10---------------------------------------|
B|---------------------12-13-12------------------------------|
G|------------------------------12-------------12------------|
D|---------------------------------12-12h14-14---------------|
A|-----------------------------------------------------------|
E|-----------------------------------------------------------|

G         Am7             Bm
Gastas tu tiempo y dinero conmigo
     C           G     Am7 Bm C
Y ya ves el resultado
G        Am7             Bm
Pensabas hacerme cambiar
        C         G      Am7 Bm C
Pero te has equivocado
G        Am7            Bm
Sabes que soy mentiroso
      C             G      Am7 Bm C
No sé cómo me haces caso
G      Am7                Bm
Cuando digo que te quiero
       C         G     Am7 Bm C
Es que estoy enfadado


G          Am7       Bm
No pienses más en mí
C
Debes olvidarme
G           Am7      Bm
Yo no valgo para ti
C
Mejor dejarme




G        Am7            Bm   C
¡Hey! No llores más por mí
G        Am7            Bm   C
¡Hey! No llores más por mí
G        Am7            Bm   C
¡Hey! No llores más por mí
G        Am7            Bm   C
¡Hey! No llores más por mí




(Sigue los acordes G/Am7/Bm/C)
E|-10-10h12-10h12-10-------------------------------------12--|
B|-------------------10-12---------10-----------------12-----|
G|----------------------------9-12----11-9---------11--------|
D|-------------------------12--------------12---12-----------|
A|-----------------------------------------------------------|
E|-----------------------------------------------------------|

E|-10-------------------------------10s12-10-----------------|
B|----10s12-10--12------------10-------------12-10-12--------|
G|--------------------9-12--9----12--------------------------|
D|-----------------12----------------------------------------|
A|-----------------------------------------------------------|
E|-----------------------------------------------------------|


G        Am7            Bm   C
¡Hey! No llores más por mí
G        Am7            Bm   C
¡Hey! No llores más por mí
G        Am7            Bm   C
¡Hey! No llores más por mí
G        Am7            Bm   C
¡Hey! No llores más por mí





G         Am7                Bm
Aquí me encuentro en la calle
      C            G     Am7 Bm C
Mis vaqueros destrozados
G            Am7            Bm
Pensando que precio he de pagar
     C               Am7 Bm C
Para irme de tu lado
G    Am7          Bm
Esta vez debes creerme
       C             G    Am7 Bm C
Que no quise hacerte daño
G         Am7          Bm
Escoge primero tú el camino
       C                   Am7 Bm C
Yo me iré por el contrario

G          Am7       Bm
No pienses más en mí
C
Debes olvidarme
G           Am7      Bm
Yo no valgo para ti
C
Mejor dejarme




G        Am7            Bm   C
¡Hey! No llores más por mí
G        Am7            Bm   C
¡Hey! No llores más por mí
G        Am7            Bm   C
¡Hey! No llores más por mí
G        Am7            Bm   C
¡Hey! No llores más por mí




(Sigue los acordes G/Am7/Bm/C):
E|------------------------------7---10h12-10h12-10-----------|
B|----10h12-10-12-----8h10----8---8----------------13-12-13--|
G|-------------------------11--------------------------------|
D|-12-------------12-----------------------------------------|
A|-----------------------------------------------------------|
E|-----------------------------------------------------------|

E|-----------------------------------------------------------|
B|-12-----10-12--------------------------------10h12-10-12---|
G|-----12--------------9-------------------------------------|
D|--------------12--12---12--------9-----------------------12|
A|--------------------------12--12---10----------------------|
E|--------------------------------------12--10---------------|
Composição de Yosi
    • ½ Tom
    • A
    • Bb
    • B
    • C
    • Db
    • D
    • Eb
    • E
    • F
    • F#
    • G
    • Ab
  • Adicionar à lista

    0 comentários

    Ver todos os comentários

    Conseguiu tocar?

    0 Tocaram 0 Ainda não

    Grave um vídeo tocando No llores mas por mí e nos envie!

    00:00 / 00:00
    Outros vídeos desta música
    Repetir Qualidade Automático
    Outros vídeos desta música
    00:00 / 00:00
    Automático

    Cifra Club Pro

    Aproveite o Cifra Club com benefícios exclusivos e sem anúncios
    Cifra Club Pro
    Aproveite o Cifra Club com benefícios exclusivos e sem anúncios
    OK