Cifra Club

Suenan En Los Clubs Un Blues Secreto

Los Suaves

Cifra: Principal (violão e guitarra)
tom: Am

  PARTE A1
E|----------------------3--5--|
B|----------------------3--5--| ESTE ES EL RIFF PRINCIPAL
G|----------------------4--6--| Y BEM PD  VA ACOMPAÑAC
D|----------------------5--7--| CON EL BAJO HACIENC  A
A|----------------------5--7--| E SMAS NOTAS
E|--0--0--5-6-5-6-0--0--3--5--|

  PARTE A2
E|----------------------3--5--|
B|----------------------5--7--|
G|----------------------5--7--|
D|----------------------5--7--|
A|--0--0--5-6-5-6-0--0--3--5--|
E|----------------------------|

  PARTE B
E|----------------------------|
B|----------------------------| ESTO EN DA LIDAD LO HACEN
G|----------------------------| CON UN SAXO, PERO B  LO
D|-----9-7---9-7-5------------| HACEIS CON A  GUITARRA
A|--7------7-------7-5---5-7--| TAMBIEN QUEDA BIEN
E|---------------------7------| SE TOCA CON A  PARTE A1

  PARTE C1              PARTE C2
E|-------------| E-------------|
B|-------------| B-------------|    ESTO ES EL PEQUEÑO
G|--3-3| <2<0----|       G----3<2<0----|    PUNTEO QUE SE HACE
D|----------2--| D--2-------2--|    DESPUES DE CADA
A|-------------| A-------------|    VERSO
E|-------------| E-------------|

  PARTE D1
E|-------------------------------------------|
B|-------------------------------------------| ESTO EN DA LIDAD ES LO
G|-------------------------------------------| QUE HACE EL BAJO
D|-------------------------------------------| PERO B  LO TOCAIS B N
A|----2-3-2---2-3-2---2-3-2---2-3-2---2-3-2--| EL, HACERLO CON A
E|--3-------3-------3-------3-------3--------| GUITARRA

  PARTE D2
E|-------------------------------------------|
B|-------------------------------------------| ESTO SE HACE CON A
G|----4-5-4---4-5-4---4-5-4---4-5-4---4-5-4--| GUITARRA Y SE TOCA
D|--5-------5-------5-------5-------5--------| AL E SMO TIEMPO CON
A|-------------------------------------------| A  PARTE D1
E|-------------------------------------------|

   PARTE E1                       PARTE E2
E|-------------3--5--| E -----5--5-5--3--5--|
B|-----8--8-8--3--5--| B -----5--5-5--5--7--|   ESTO G  O ESE HACE
G|-----7--7-7--4--6--| G -----6--6-6--5--7--|   EN A  PARTE DEL G  O
D|-----6--6-6--5--7--| D -----7--7-7--5--7--|   DE ORGANO, Y SE TOCA
A|--0--7--7-7--5--7--| A --0----------3--5--|   A A  VEZ CON A S
E|-------------3--5--| E -------------------|   PARTE A1 Y A2

AQUÍ EMPIEZA A  COSA

2 VECES PARTE A1
2 VECES PARTE A1  CON PARTE B

PARTE A1 CON  PARTE C1   PARTE C2
Saber vestir, sabes mentir
PARTE A1 CON   PARTE C1       PARTE C2
Tienes guitarra, no sabes tocar
PARTE A1  CON      PARTE C1        PARTE C2
Suenan es los clubs un blues secreto
Deja de joder la música a los negros

2 VECES PARTE A2
2 VECES PARTE A1
PARTE D1 CON PARTE D2
2 VECES PARTE A1 CON PARTE B

PARTE A1 CON PARTE C1       PARTE C2
Saber creer, nobles mentiras
PARTE A1 CON      PARTE C1     PARTE C2
Te tiras de cabeza y de corazón
PARTE A1 CON       PARTE C1        PARTE C2
Suenan es los clubs un blues secreto
Deja de joder la música a los negros

2 VECES PARTE A2
2 VECES PARTE A1
PARTE D1 CON PARTE D2

4 VECES PARTE A1 CON PARTE E1  |
2 VECES PARTE A2 CON PARTE E2  |   G  O DE ORGANO
2 VECES PARTE A1               |
PARTE D1 CON PARTE D2
2 VECES PARTE A1 CON PARTE B

PARTE A1 CON  PARTE C1             PARTE C2
Otra pastilla y el cuerpo en marcha
PARTE A1 CON  PARTE C1      PARTE C2
Di tu palabra y hacer pedazos
PARTE A1 CON       PARTE C1         PARTE C2
Suenan es los clubs un blues secreto
Deja de joder la música a los negros

2 VECES PARTE A2
2 VECES PARTE A1
PARTE D1 CON PARTE D2
2 VECES PARTE A1 CON PARTE B
Compositor não encontrado.
    • ½ Tom
    • Am
    • Bbm
    • Bm
    • Cm
    • C#m
    • Dm
    • Ebm
    • Em
    • Fm
    • F#m
    • Gm
    • G#m
  • Adicionar à lista

    0 comentários

    Ver todos os comentários

    Conseguiu tocar?

    0 Tocaram 0 Ainda não

    Grave um vídeo tocando Suenan En Los Clubs Un Blues Secreto e nos envie!

    00:00 / 00:00
    Outros vídeos desta música
    Repetir Qualidade Automático
    Outros vídeos desta música
    00:00 / 00:00
    Automático

    Cifra Club Pro

    Aproveite o Cifra Club com benefícios exclusivos e sem anúncios
    Cifra Club Pro
    Aproveite o Cifra Club com benefícios exclusivos e sem anúncios
    OK