Enviar cifraEntrar

Amigos Pela Fé

Luan Santana

Cifra: Principal
exibições 328.396
Tom: D

E|-3/5\3-0----------------------------------|
B|-3/5\3-0----------------------------------|
G|--------2/4-0-----0-----------------------|
D|--------------0/2-------------------------|
A|------------------------------------------|
E|------------------------------------------|


    Intro: G   D/F#  Em  D  C  Am   D(2X)
E|14/12--10--8/9--9/7--9--9/10---9---7/8---7|
B|------------------------------------------|
G|11/9---7---5/6--6/4--6--6/7----6---4/5---4|
D|------------------------------------------|
A|------------------------------------------|
E|------------------------------------------|


G     D/F#  Em   Em/D    C
Quem me dará   um ombro amigo
               D4   D
quando eu precisar ?
G    D/F#  Em    Em/D    C
E se eu cair, se eu vacilar,
                   D4  D
quem vai me levantar ?

    Am7               G
Sou eu,  quem vai ouvir você
          C9                        D4 D
quando o mundo não puder te entender
     Am7                 G
Foi Deus, quem te escolheu pra ser
      C9                          D4    D
o melhor amigo que eu pudesse ter

G D/F#  Em       D
 Amigos,    pra sempre
       C                       D
Bons Amigos que nasceram pela fé
G D/F#  Em       D
 Amigos,    pra sempre
      C             Am              G   ( Bb ) (7x)
Para sempre amigos sim, se Deus quiser


    Solo 2x: D# Bb Cm Bb G# Bb
E|-13-13-13/15-13-----------------------------|
B|-13-13-13/15-13-----------------------------|
G|---------------14h15-14-------10-------8/10-|
D|------------------------10h12----12-10------|
A|--------------------------------------------|
E|--------------------------------------------|


E|--------------------------------------|
B|-------------------------13-----------|
G|-------10-12-10-12-12/14----12/14-12--|
D|-10/12--------------------------------|
A|--------------------------------------|
E|--------------------------------------|


E|-13-13-13/15-13----------12-12/13-12-15-13-|
B|-13-13-13/15-13----------------------------|
G|----------------14h15-14-------------------|
D|-------------------------------------------|
A|-------------------------------------------|
E|-------------------------------------------|


E|---------------------|
B|-----9h10-9-7--------|
G|-7h--9--------9-7-9--|
D|---------------------|
A|---------------------|
E|---------------------|


G    D/F#   Em     D    C
 Quem é que vai  me acolher,
            D
na minha indecisão
G     D/F#    Em    D    C
 Se eu me perder pelo caminho
           D
quem me dará a mão
     Am               G
Foi Deus, quem consagrou você e eu
      C                              D
para sermos bons amigos, num só coração
    Am           G
Por isso eu estarei aqui
        C                    D
quando tudo parecer sem solução

 Bb                  F
 Peço a Deus que te guarde

Bb              D       D4 D
 E te dê a sua Paz.

G D/F#  Em       D
 Amigos,    pra sempre
       C                        D D4 D
Bons Amigos que nasceram pela fé
G D/F#  Em       D
 Amigos,    pra sempre
      C                           D D4 D
Para sempre amigos sim, se Deus quiser


G D/F#  Em       D
 Amigos,    pra sempre
       C                        D D4 D
Bons Amigos que nasceram pela fé
G D/F#  Em       D
 Amigos,    pra sempre
      C          Am          D       G
Para sempre amigos sim, se Deus quiser
  • 1
  • 2
  • 3
  • 4
  • 5
  • 6
  • 7
  • 8
  • 9
  • 10
  • 11
  • 12

    0 comentários

      mostrar mais comentários

      Conseguiu tocar?

      20tocaram2ainda não

      Grave um vídeo tocando Amigos Pela Fé e mande pra gente!

      00:00 / 00:00
      outros vídeos desta música
      repetirqualidadeautomática
      • automática
      Outro vídeos desta música
        00:00 / 00:00
        automática
        • automática
        Acordes para:violão e guitarra
        dificuldadeexibiçõescontribuições
        fecharplay/pause subir/descer velocidade
          acordes
          fechar
          OK
          Feedback