Notificações Amigos pendentes

      Luan Santana

      Amigos Pela Fé

      323.574 exibições
      Tom: D
      
      E|-3/5\3-0----------------------------------|
      B|-3/5\3-0----------------------------------|
      G|--------2/4-0-----0-----------------------|
      D|--------------0/2-------------------------|
      A|------------------------------------------|
      E|------------------------------------------|
      
      
          Intro: G   D/F#  Em  D  C  Am   D(2X)
      E|14/12--10--8/9--9/7--9--9/10---9---7/8---7|
      B|------------------------------------------|
      G|11/9---7---5/6--6/4--6--6/7----6---4/5---4|
      D|------------------------------------------|
      A|------------------------------------------|
      E|------------------------------------------|
      
      
      G     D/F#  Em   Em/D    C
      Quem me dará   um ombro amigo
                     D4   D
      quando eu precisar ?
      G    D/F#  Em    Em/D    C
      E se eu cair, se eu vacilar,
                         D4  D
      quem vai me levantar ?
      
          Am7               G
      Sou eu,  quem vai ouvir você
                C9                        D4 D
      quando o mundo não puder te entender
           Am7                 G
      Foi Deus, quem te escolheu pra ser
            C9                          D4    D
      o melhor amigo que eu pudesse ter
      
      G D/F#  Em       D
       Amigos,    pra sempre
             C                       D
      Bons Amigos que nasceram pela fé
      G D/F#  Em       D
       Amigos,    pra sempre
            C             Am              G   ( Bb ) (7x)
      Para sempre amigos sim, se Deus quiser
      
      
          Solo 2x: D# Bb Cm Bb G# Bb
      E|-13-13-13/15-13-----------------------------|
      B|-13-13-13/15-13-----------------------------|
      G|---------------14h15-14-------10-------8/10-|
      D|------------------------10h12----12-10------|
      A|--------------------------------------------|
      E|--------------------------------------------|
      
      
      E|--------------------------------------|
      B|-------------------------13-----------|
      G|-------10-12-10-12-12/14----12/14-12--|
      D|-10/12--------------------------------|
      A|--------------------------------------|
      E|--------------------------------------|
      
      
      E|-13-13-13/15-13----------12-12/13-12-15-13-|
      B|-13-13-13/15-13----------------------------|
      G|----------------14h15-14-------------------|
      D|-------------------------------------------|
      A|-------------------------------------------|
      E|-------------------------------------------|
      
      
      E|---------------------|
      B|-----9h10-9-7--------|
      G|-7h--9--------9-7-9--|
      D|---------------------|
      A|---------------------|
      E|---------------------|
      
      
      G    D/F#   Em     D    C
       Quem é que vai  me acolher,
                  D
      na minha indecisão
      G     D/F#    Em    D    C
       Se eu me perder pelo caminho
                 D
      quem me dará a mão
           Am               G
      Foi Deus, quem consagrou você e eu
            C                              D
      para sermos bons amigos, num só coração
          Am           G
      Por isso eu estarei aqui
              C                    D
      quando tudo parecer sem solução
      
       Bb                  F
       Peço a Deus que te guarde
      
      Bb              D       D4 D
       E te dê a sua Paz.
      
      G D/F#  Em       D
       Amigos,    pra sempre
             C                        D D4 D
      Bons Amigos que nasceram pela fé
      G D/F#  Em       D
       Amigos,    pra sempre
            C                           D D4 D
      Para sempre amigos sim, se Deus quiser
      
      
      G D/F#  Em       D
       Amigos,    pra sempre
             C                        D D4 D
      Bons Amigos que nasceram pela fé
      G D/F#  Em       D
       Amigos,    pra sempre
            C          Am          D       G
      Para sempre amigos sim, se Deus quiser
        Composição: Dalvimar GalloColaboração e revisão:
        • Taís
        • danielSantana
        • laymanu
        • matheusblackmm
        • +9

        Comentários 12

        140 .
        • José Ricardo José Ricardo: Em 24/03/2016 00:43

          Subindo a musica 1 tom fica bem melhor e a harmonia encaixa com o Luan cantando.

        • MarcosMP MarcosMP: Em 02/02/2016 13:57

          A música já ruim e com a cifra podre assim... falapocê

        • Sidi Sidi: Em 15/11/2013 11:07

          Essa cifra esta errada, tem muitos acordes fora do lugar, e alguns trocados!!!

        • brusantos1999 brusantos1999: Em 10/04/2012 18:50

          qual é a batida da musica?

        • joaopedrofeoli joaopedrofeoli: Em 04/09/2011 23:53

          essa musica de mais. Luan so inriquecel essa musica .
          parabéns fera

          • André André: Em 05/06/2013 17:20

            Tá serto

          • maarS23000 maarS23000: Em 23/11/2013 15:03

            Comentário removido

          • maarS23000 maarS23000: Em 23/11/2013 15:04

            não sei não

          • Leonardo Leonardo: Em 12/03/2016 19:38

            Meu jovem, essa música não é dele, e sim do Anjos de Resgate, mas a versão está até que é boa!

        • __vivi__ __vivi__: Em 15/06/2011 16:13

          Nossa quando eu ouço da vontade de charar,pq eu lembro de uma amiga muito querida

        140 cancelar

        conseguiu tocar?

        • •••

        covers

        Grave um vídeo tocando Amigos Pela Fé e mande pra gente!

        Ex.: http://www.youtube.com/watch?v=0IvSvIwGdwk
        ver covers de outras músicas »
        0:00 / 0:00

        Capítulos

          play/pausefechar subir/descer velocidade
          6ª corda E5ª corda A4ª corda D3ª corda G2ª corda B1ª corda E
            acordes
            publicidade
            fechar
            ok