Notificações Amigos pendentes

      Luan Santana

      As Lembranças Vão Na Mala

      809.334 exibições
      Tom: E
      Intro 3x:
      
             C#m                     A   E              B
      E|------------------------------------------12--11~-11h12p11---------|
      B|---------------------------------------12------------------12------|
      G|-9---------9----9----9---------------9------------------------11~--|
      D|-11-----13---13---13---13----------9-------------------------------|
      A|-11-----------------------12---------------------------------------|
      E|-9----------------------------12-----------------------------------|
      
      
      Riff 1:
      
      E|-11h12p11---------|
      B|----------12------|
      G|-------------11~--|
      D|------------------|
      A|------------------|
      E|------------------|
      
      
      Riff 2:
      
      E|-11h12-11---------|
      B|----------12------|
      G|-------------11~--|
      D|------------------|
      A|------------------|
      E|------------------|
      
      
      C#m         A    E                   B
      Independentemente do que me disser agora
      C#m            A             E           B
      Queria deixar claro algumas coisas pra você
      C#m         A    E                      B
      Independentemente se deu certo nossa história,
      C#m             A               E               B
      Não quero que fique comigo por dó de me fazer sofrer
      
      Pré-Refrão:
      C#m            B       A                      C#m
      Orgulhoso, eu não me ajoelhei pra ter seu coração,
      C#m             B        A                      B
      Imperfeito sou sim, mas dei o meu melhor até o fim.
      
      Refrão 2x:
       C#m                A                 E
      Sua consciência não vai te deixar dormir
                                   B
      Pois ninguém mais faz palhaçada pra te ver sorrir
       C#m                     A                E
      Ninguém vai te abraçar pra ver o sol se pôr
                                B
      Ninguém vai escrever no muro uma história de amor.
      
      C#m            A
      Mas se mesmo assim
                     E
      Quiser me deixar
                            B
      As lembranças vão na mala pra te atormentar.
      
            C#m                     A   E              B
      E|------------------------------------------12--11~-11h12p11---------|
      B|---------------------------------------12------------------12------|
      G|-9---------9----9----9---------------9------------------------11~--|
      D|-11-----13---13---13---13----------9-------------------------------|
      A|-11-----------------------12---------------------------------------|
      E|-9----------------------------12-----------------------------------|
      
      
      Pré-Refrão:
      C#m            B       A                      C#m
      Orgulhoso, eu não me ajoelhei pra ter seu coração,
      C#m             B        A                      B
      Imperfeito sou sim, mas dei o meu melhor até o fim.
      
      Refrão 2x:
       C#m                A                 E
      Sua consciência não vai te deixar dormir
                                   B
      Pois ninguém mais faz palhaçada pra te ver sorrir
       C#m                     A                E
      Ninguém vai te abraçar pra ver o sol se pôr
                                B
      Ninguém vai escrever no muro uma história de amor.
      
      C#m            A
      Mas se mesmo assim
                     E
      Quiser me deixar
                            B                         C#m   A
      As lembranças vão na mala pra te atormentar.
      
      Refrão 2x:
       C#m                A                 E
      Sua consciência não vai te deixar dormir
                                   B
      Pois ninguém mais faz palhaçada pra te ver sorrir
       C#m                     A                E
      Ninguém vai te abraçar pra ver o sol se pôr
                                B
      Ninguém vai escrever no muro uma história de amor.
      
      C#m            A
      Mas se mesmo assim
                     E
      Quiser me deixar
                            B
      As lembranças vão na mala pra te atormentar.
      
            C#m                     A
      E|--------------------------------|
      B|--------------------------------|
      G|-9---------9----9----9----------|
      D|-11-----13---13---13---13-------|
      A|-11-----------------------12----|
      E|-9------------------------------|
      
      
        Composição: Luan SantanaColaboração e revisão:
        • Gladyston
        • peu_castro
        • Heitor
        • atosl
        • +12

        Comentários 134

        140 .
        • crislaynefran.silva crislaynefran.silva: Em 04/11/2013 18:58

          muito facil o leo eymard é melhor pra ensinar

        • crislaynefran.silva crislaynefran.silva: Em 04/11/2013 18:57

          muito facil

        • Carlinhos Carlinhos: Em 02/06/2013 19:39

          ja to tocando , valew Leo Eymard :)

        • Carlinhos Carlinhos: Em 02/06/2013 19:32

          ja to tocando :) valew Leo Eymard

        • gleybson gleybson: Em 21/02/2013 10:32

          Leo Eymard pra mim é um dos melhores instrutores..

          • hellen.violao hellen.violao: Em 23/05/2013 17:34

            concordo...

          • josesilva.jua79 josesilva.jua79: Em 06/10/2013 14:25

            Concordo Ensina Muito bem ele e a equipe do cifra club estão de parabéns

        • gladyston gladyston: Em 25/09/2012 12:54

          Curtam meu vídeo dessa música no link "Você Tocando"... Vlw, Abraços a todos!

        • bielfortaleza bielfortaleza: Em 06/08/2012 21:08

          não curto ele, mas tem umas música boa

        • willianne.melo willianne.melo: Em 15/07/2012 23:57

          gostaria que ensinasem com teclado

        140 cancelar
        0:00 / 0:00
        Esta versão de cifra não é usada na videoaula. Exiba a cifra correta.
        1 versão de bateria exibições contribuição e correção
        2 versões de Guitar Proformatodownloadscontribuição
        1 versão de partiturasformatodownloadscontribuição
        play/pausefechar subir/descer velocidade
        6ª corda E5ª corda A4ª corda D3ª corda G2ª corda B1ª corda E
          acordes
          publicidade
          fechar
          ok