Cifra Club

Aprenda

Quem Ama Nunca Esquece

Lucas Ferreira

Cifra: Principal (violão e guitarra)
tom: C
Intro
C G Am F

E|------------------|-------------------|---------------------|
B|------------------|-----8-------------|-6p5-6p5-6/8-6-5-4/5-|
G|-/5--------5-7/9-7|-7/9---7/5-5h7-----|----7----------------|
D|----5-5h7---------|---------------5/7-|---------------------|
A|------------------|-------------------|---------------------|
E|------------------|-------------------|---------------------|

E|------------------|---------||
B|--6/-------5/-----|----8~~--||
G|-----5/7------4/5-|---5-----||
D|------------------|--7------||
A|------------------|---------||
E|------------------|---------||

Am
Disfarça o teu olhar
F
Vinge pra si mesma que tá tudo bem
C9
Mas tá perdendo tempo andando de cara pro vento
G
Sou teu grande amor meu bem
Am
Vou te reconquistar
F
Meu olhar ainda vai te convencer
C9
Não adianta fugir Deus te inventou pra mim
G
E me fez só pra você

Am7                 F          C9
Não errei foi bobagem da sua cabeça
                   G
Por favor esqueça não tem nada não
Am7              F            C9
Te quero pra sempre você sabe disso
          G                   F              G
Amor eu insisto, ouça o teu coração    oooouuooooooeeeee

Refrão
C               G                   Am
Eu não vou desistir, pode o tempo passar
                 F             G
Vou ficar te esperando aqui no mesmo lugar
C                    G                   Am
Se encontrar outro alguém, não vá se enganar
                  F           G
Quem ama nunca esquece e nem deixa de amar

Solo
 C G Am F
E|------------------|------------------------|------------------------|
B|------------------|-----8------------------|-5/8-8/10-10--8/5-5-5/3-|
G|----5-5/7-7/9-7---|-7/9---7/5-5h7----------|------------------------|
D|-4/5--------------|---------------5/7------|------------------------|
A|------------------|------------------------|------------------------|
E|------------------|------------------------|------------------------|

E|--8-8-8-8-|-7-7-7-7-|---------|-5-5-5-5|-3-3-3-3-|------------------------|
B|--8-8-8-8-|-8-8-8-8-|-8-8-8-8-|--------|---------|-15b17-15b17~~r15p13-15-|
G|----------|---------|-7-7-7-7-|--------|---------|------------------------|
D|----------|---------|---------|--------|---------|------------------------|
A|----------|---------|---------|--------|---------|------------------------|
E|----------|---------|---------|--------|---------|------------------------|

E|---------------------||
B|-13h15-13h15-13~~----||
G|-----------------14~~||
D|---------------------||
A|---------------------||
E|---------------------||

Am
Disfarça o teu olhar
F
Vinge pra si mesma que tá tudo bem
C9
Mas tá perdendo tempo andando de cara pro vento
G
Sou teu grande amor meu bem
Am
Vou te reconquistar
F
Meu olhar ainda vai te convencer
C9
Não adianta fugir Deus te inventou pra mim
G
E me fez só pra você

Am7             F              C9
Não errei foi bobagem da sua cabeça
            G
Por favor esqueça não tem nada não
Am7          F                C9
Te quero pra sempre você sabe disso
          G                   F               G
Amor eu insisto, ouça o teu coração    oooouuooooooeeeee

Refrão 2x
C               G                   Am
Eu não vou desistir, pode o tempo passar
                 F             G
Vou ficar te esperando aqui no mesmo lugar
C                    G                   Am
Se encontrar outro alguém, não vá se enganar
                                 F                   G
Quem ama nunca esquece e nem deixa de amar

Final
 C
E|---------------------||
B|----5---7/9/7-7/5-5~~||
G|-4/5-5---------------||
D|---------------------||
A|---------------------||
E|---------------------||
Composição de MAURICIO MELLO
Colaboração e revisão:
  • luiz antonio
352 exibições
    • ½ Tom
    • A
    • Bb
    • B
    • C
    • Db
    • D
    • Eb
    • E
    • F
    • F#
    • G
    • Ab
  • Adicionar à lista

    0 comentários

    Ver todos os comentários

    Conseguiu tocar?

    0 Tocaram 0 Ainda não

    Grave um vídeo tocando Quem Ama Nunca Esquece e nos envie!

    00:00 / 00:00
    Outros vídeos desta música
    Repetir Qualidade Automático
    Outros vídeos desta música
    00:00 / 00:00
    Automático

    Cifra Club Pro

    Aproveite o Cifra Club com benefícios exclusivos e sem anúncios
    Cifra Club Pro
    Aproveite o Cifra Club com benefícios exclusivos e sem anúncios
    OK