Cifra Club

Aprenda

9° Sinfonia No Tom de G

Ludwig Van Beethoven

Cifra: Principal (violão e guitarra)
Quer fazer aulas de música com a gente? Responda essas perguntas
e nos ajude nesse projeto! →
tom: G
E|---------------------------------------------------------|
B|0-0-1-3-3-1-0---------0-0--------------------------------|
G|------------  2-0-0-2-----2-2----------------------------|
D|---------------------------------------------------------|
A|---------------------------------------------------------|
E|---------------------------------------------------------|

E|---------------------------------------------------------|
B|0-0-1-3-3-1-0----------0---------------------------------|
G|------------  2-0-0-2----2-0-0---------------------------|
D|---------------------------------------------------------|
A|---------------------------------------------------------|
E|---------------------------------------------------------|

E|---------------------------------------------------------|
B|----0-----0-1-0-----0-1-0--------------------------------|
G|2-2---0-2-------0-2-------0-2----------------------------|
D|------------------------------0--------------------------|
A|---------------------------------------------------------|
E|---------------------------------------------------------|

Compositor não encontrado.
Colaboração e revisão:
  • Hudson Almeida
2.518 exibições
    • ½ Tom
    • A
    • Bb
    • B
    • C
    • Db
    • D
    • Eb
    • E
    • F
    • F#
    • G
    • Ab
  • Adicionar à lista

    0 comentários

    Ver todos os comentários

    Conseguiu tocar?

    1 Tocaram 1 Ainda não

    Grave um vídeo tocando 9° Sinfonia No Tom de G e nos envie!

    00:00 / 00:00
    Outros vídeos desta música
    Repetir Qualidade Automático
    Outros vídeos desta música
    00:00 / 00:00
    Automático

    Cifra Club Pro

    Aproveite o Cifra Club com benefícios exclusivos e sem anúncios
    Cifra Club Pro
    Aproveite o Cifra Club com benefícios exclusivos e sem anúncios
    OK