Cifra Club

Aprenda

Fur Elisa 2

Ludwig Van Beethoven

Cifra: Principal (violão e guitarra)
Quer fazer aulas de música com a gente? Responda essas perguntas
e nos ajude nesse projeto! →
tom: C
Primera Parte

Si les gusta, coloco la parte que sigue
si no les usta algo este es mi mail

6|------------------------------------------------------------------------------------------------
5|------------------------------------------------------------------------------------------------
4|------------------------------------------------------------------------------------------------
3|-----------------------------4--------5---2------------------------------------------------------
2|------5---4---5---4---5----------3--------------------------------------------------------------
1|-----------------------------------------------------------------------------------------------

6|------------------------------------------------------------------------------------------------
5|------3------------------------------------------------------------------------------------------
4|-------------2---------------------------------------2--------------------------------------------
3|--------------------2-----------------------------------------1-----------------------------------
2|---------------------------0-----------------------------------------0------1--------------------
1|------------------------------------------------------------------------------------------------

6|------------------------------------------------------------------------------------------------
5|------------------------------------------------------------------------------------------------
4|------------------------------------------------------------------------------------------------
3|---------------------------4----------5---2--------------------------------------------------------
2|------5---4---5---4---5---------3-----------------------------------------------------
1 |-----------------------------------------------------------------------------------------------

6|------------------------------------------------------------------------------------------------
5|------3------------------------------------------------------------------------------------------
4|-------------2---------------------------------------0--------------------------------------------
3|--------------------2------------------------------------------------------2----------------------
2|---------------------------0---------------------------------1----0------------------------------
1|------------------------------------------------------------------------------------------------
Compositor não encontrado.
Colaboração e revisão:
  • Bruno Vasconcelos
  • Filipe Rodrigues
  • Jair Junior
17.627 exibições
    • ½ Tom
    • A
    • Bb
    • B
    • C
    • Db
    • D
    • Eb
    • E
    • F
    • F#
    • G
    • Ab
  • Adicionar à lista

    0 comentários

    Ver todos os comentários

    Conseguiu tocar?

    0 Tocaram 0 Ainda não

    Grave um vídeo tocando Fur Elisa 2 e nos envie!

    00:00 / 00:00
    Outros vídeos desta música
    Repetir Qualidade Automático
    Outros vídeos desta música
    00:00 / 00:00
    Automático

    Cifra Club Pro

    Aproveite o Cifra Club com benefícios exclusivos e sem anúncios
    Cifra Club Pro
    Aproveite o Cifra Club com benefícios exclusivos e sem anúncios
    OK