Cifra Club

Aprenda

Asa Branca

Luiz Gonzaga

Tab de baixo: Principal
G|---------------------------------|
D|-------0-0----------0-0----------|
A|----0-2-----2-3-3--0-2---3-2-----|
E|-3----------------3--------------|

G|---------------------------------|
D|------0-0------------------------|
A|---0-2---3-2-3-2-2-0-0-2-0-0-----|
E|3-3---------3---------------3-3--|

G|---------------------------------|
D|------0-0------------------------|
A|---0-2---3-2-3-2-2-0-0-2-0-0-----|
E|3-3---------3---------------3-3--|

G|0-12-0-9-0-7-0-5-0-3-0-----------|
D|-----------------------1-3-0-----|
A|---------------------------------|
E|---------------------------------|
Composição de Humberto Teixeira / Luiz Gonzaga
Colaboração e revisão:
  • Rubem
  • rodrigo
  • Samuel Rocha
40.731 exibições

0 comentários

Mostrar mais comentários

Conseguiu tocar?

10 Tocaram 1 Ainda não

Grave um vídeo tocando Asa Branca e mande pra gente!

00:00 / 00:00
outros vídeos desta música
repetir qualidade Automático
Outros vídeos desta música
00:00 / 00:00
Automático
OK